Guitaretab - guitar tabs
Song name
# A B C D E F G H I J K L M N O P Q R S T U V W X Y Z

The Fall Of Troy - What Sound Does A Mastodon Make tab

THE FALL OF TROY- WHAT SOUND DOES A MASTODON MAKE?

tabbed by: matddors@comcast.net

this is just how i play it. they mix guitars in it, but this is the basic structure.

(standard tuning)

INTRO: super fast (4X)

e|-7p0-0-7p0-0-7p0-0-7p0-0-7p0-7p0-7p0-0-7p0-0-7p0-0-7p0--7p0-7p0--10p0-0-10p0-0-8p0-0-8p0-0-8p0--15p0-0-15p0-0-14p0-0-14p0-0-14p0-|
B|-8-----8-----8-----8-----8---8---8-----8-----8-----8----8----8----7------7-----7-----7-----7----12-----12-----12-----12-----12---|
G|-9-----9-----9-----9-----9---9---9-----9-----9-----9----9----9----9------9-----9-----9-----9----12-----12-----12-----12-----12---|
D|---------------------------------------------------------------------------------------------------------------------------------|
A|---------------------------------------------------------------------------------------------------------------------------------|
E|---------------------------------------------------------------------------------------------------------------------------------|

PRE-VERSE (1X)

e|----------------------------------10-----------------------------------------------|
B|-7h8p7-7-7h8p7-7--7h8p7-7-7h8p7-7------7p0--------7p0--------8p0--------8p0--------|
G|------9-------9-9------9-------9----9-----7p0h7p0----7p0h7p0----8p0h8p0----8p0h8p0-|
D|-----------------------------------------------------------------------------------|
A|-----------------------------------------------------------------------------------|
E|-----------------------------------------------------------------------------------|

VERSE (AABB)

e|----------------------------------10-------------------------------------------------|   AA
B|-7h8p7-7-7h8p7-7--7h8p7-7-7h8p7-7------7p0--------7p0--------8p0--------8p0----------|  A  A
G|------9-------9-9------9-------9----9-----7p0h7p0----7p0h7p0----8p0h8p0----8p0h8p0---| A    A
D|-------------------------------------------------------------------------------------| AAAAAA
A|-------------------------------------------------------------------------------------| A    A
E|-------------------------------------------------------------------------------------| A    A

e|-15p0------15p0------15p0-15p0------15p0------15-17-15-14p0---------14p0----------15p0---------15p0------------| BBBB
B|-----15h17-----15h17----------15h17-----15h17--------------15p0h15p0----15p0h15p0-----16p0h16p0----16p0h16p0---| B   B
G|---------------------------------------------------------------------------------------------------------------| BBBB
D|---------------------------------------------------------------------------------------------------------------| B   B
A|---------------------------------------------------------------------------------------------------------------| B   B
E|---------------------------------------------------------------------------------------------------------------| BBBB

CHORUS (2X)

e|-003h5---7h8p0-----7-5-10--8-7-7-003h5---7h8p0-----------------------|
B|-55---3h5-----8h10-8-7-12-10-8-8-55---3h5-----8h10p0-8-8-07/-8-8-07/-|
G|-----------------------------------------------------9-9-----9-9-----|
D|---------------------------------------------------------------------|
A|---------------------------------------------------------------------|
E|---------------------------------------------------------------------|

PRE-VERSE
VERSE
CHORUS

PRE-VERSE 2 (1X)

e|---------------------------|
B|---------------------------|
G|-9-9-9-9-9999-9-9-9-9-7777-|
D|-x-x-x-x-xxxx-x-x-x-x-xxxx-|
A|-7-7-7-7-7777-7-7-7-7-5555-|
E|---------------------------|

VERSE 2 (3X)

e|---------------------------|
B|---------8888--------------|
G|-9-9-9-9-9999-9-9-9-9-7777-|
D|-x-x-x-x-xxxx-x-x-x-x-xxxx-|
A|-7-7-7-7-7777-7-7-7-7-5555-|
E|---------------------------|

VERSE 2 VARIATION (1X)

e|------------------|
B|---------8888-----|
G|-9-9-9-9-9999-11b-|
D|-x-x-x-x-xxxx-x---|
A|-7-7-7-7-7777-9b--|
E|------------------|

VERSE 2
VERSE 2 VARIATION

POST-VERSE 2 (AABC)

e|-1010101010108-8-8-8-8-8-8-8-7777775555555555-|   AA
B|-12121212121210101010101010108888887777777777-|  A  A
G|------------------------------------------------| A    A
D|------------------------------------------------| AAAAAA
A|------------------------------------------------| A    A
E|------------------------------------------------| A    A

e|-121212121212101010101010101010108-8-8-8-8-8-7777777777-| BBBB
B|-131313131313121212121212121212121010101010108888888888-| B   B
G|----------------------------------------------------------| BBBB
D|----------------------------------------------------------| B   B
A|----------------------------------------------------------| B   B
E|----------------------------------------------------------| BBBB

e|-141414141414151515151515151517b-| CCCCCC
B|-151515151515171717171717171719b-| C
G|-----------------------------------| C
D|-----------------------------------| C
A|-----------------------------------| C
E|-----------------------------------| CCCCCC

VERSE 3 (3X [2nd time leave out both ****])
                                                                      ****         ****
e|------------------------------------------------------------------------------------------|
B|-------8-7--12b--------8-7-12h13p0--------------------------------------------------------|
G|-999-7-x-x--16b--999-7-x-x--------12h14p0------7777-5-4-2-4--4--55-(4h5p4p0)-44-----------|
D|-xxx-x-5-4-------xxx-x-5-4---------------14p0--xxxx-x-x-x-x--x--xx-----------xx-(4h5p4p0)-|
A|-777-5-----------777-7-------------------------5555-3-2-0-2--2--33-----------22-----------|
E|------------------------------------------------------------------------------------------|
[ Tab from: http://www.guitaretab.com/t/the-fall-of-troy/83655.html ]
BRIDGE (AABB)
                           1st ending                         2nd ending
e|-------------------------|---------------------------------|----------------------------------------------|   AA
B|-------------------------|---------------------------------|----------------------------------------------|  A  A
G|-------------------------|---------------------------------|----------------------------------------------| A    A
D|-------------------------|---------------------------------|----------------------------------------------| AAAAAA
A|-5h777-5h777-5h777-5h777-|-10h121212-10h121212-7h999-7h999-|-10h1212-10h1212-10h12-12-7h99-7h99-7h9-7h9---| A    A
E|-------------------------|---------------------------------|----------------------------------------------| A    A
PM . ... . ... . ... . ...    .  . . .  .  . . . . ... . ...    .  . .  .  . .  .  .  . . .. . .. . . . .

e|----------------------------------------------------------| BBBB
B|-7888-7888-7888-7888-12131313-12131313--8101010-8101010---| B   B
G|-7999-7999-7999-7999-12141414-12141414--9111111-9111111---| BBBB
D|-xxxx-xxxx-xxxx-xxxx--x-x-x-x--x-x-x-x--x-x-x-x-x-x-x-x---| B   B
A|-5777-5777-5777-5777-10121212-10121212--7-9-9-9-7-9-9-9---| B   B
E|----------------------------------------------------------| BBBB

PRE-VERSE 4

e|-------------------7*--|
B|-7888--7888--7888---7*-|
G|-7999--7999--7999----7*|
D|-xxxx--xxxx--xxxx------|
A|-5777--5777--5777------|
E|-----0-----0-----0-----|

VERSE 4 (ABAB)

e|-----------------------------------------------------------------------------|   AA
B|-7888--7888--7888--7888--131313131313121212121212101010101010121212121212----|  A  A
G|-xxxx--xxxx--xxxx--xxxx---x-x-x-x-x-x-x-x-x-x-x-x-x-x-x-x-x-x-x-x-x-x-x-x----| A    A
D|-4555--4555--4555--4555--101010101010-9-9-9-9-9-9-7-7-7-7-7-7-9-9-9-9-9-9----| AAAAAA
A|-----------------------------------------------------------------------------| A    A
E|-----0-----0-----0-----0-----------------------------------------------------| A    A

e|-----------------------------------------------------------------------------| BBBB
B|-7888--7888--7888--7888--131313131313121212121212151515151515131313131313----| B   B
G|-xxxx--xxxx--xxxx--xxxx---x-x-x-x-x-x-x-x-x-x-x-x-x-x-x-x-x-x-x-x-x-x-x-x----| BBBB
D|-4555--4555--4555--4555--101010101010-9-9-9-9-9-9121212121212101010101010----| B   B
A|-----------------------------------------------------------------------------| B   B
E|-----0-----0-----0-----0-----------------------------------------------------| BBBB

POST-VERSE 4
e|-----12p0-12p0-12p0-12p0-12p0-12p0--12p0-12p0-12p0--12p0-12p0-12p0-12-|
B|----------------------------------------------------------------------|
G|----------------------------------------------------------------------|
D|----------------------------------------------------------------------|
A|----------------------------------------------------------------------|
E|-0~-------------------------------------------------------------------|

VERSE 5 (2X [i gave you both guitars just for fun])

guitar 1
e|-7*--------------5*-|
B|---7*------7*--4*---|
G|-----5*7*----7*-----|
D|--------------------|
A|--------------------|
E|--------------------|

guitar 2
e|-----------------------------------------|
B|-7---5----------7-8---7---5----------7-8-|
G|---7---4----7-4---------7---4----2-0-----|
D|-----------------------------------------|
A|-----------------------------------------|
E|-----------------------------------------|

PRE-VERSE 6 (1.2.1)
            1st ending                   2nd ending
e|----------|-------------------10----10-|-0~---------------------------|
B|-------3~-|-------3--------7h8---7h8---|-0~---12h13-12h13-10h12-10h12-|
G|----------|----------------------------|-0~---------------------------|
D|-------2~-|----------------------------|-2~---------------------------|
A|-------2~-|----------------------------|-2~---------------------------|
E|-0-0-0----|--0-2h3--5-7h8--------------|-0~---------------------------|
PM . . .

VERSE 6 (AAAAAAAAAABBBB)

e|---------------------------------------|   AA
B|-12h13-12h13-12h13-10h12-10h12-10h12---|  A  A
G|---------------------------------------| A    A
D|---------------------------------------| AAAAAA
A|---------------------------------------| A    A
E|---------------------------------------| A    A

e|-000000000000000000000000-| BBBB
B|-888888666666555555666666-| B   B
G|----------------------------| BBBB
D|----------------------------| B   B
A|----------------------------| B   B
E|----------------------------| BBBB

VERSE 7 (ABAA)

e|---10h12p0---10h12p0---10h12p0---10h12p0-------------------------------------|   AA
B|-----------------------------------------13-13-13-13-13-13-12-12-12----------|  A  A
G|-9---------9---------9---------9---------------------------------------------| A    A
D|-x---------x---------x---------x---------10-10-10-10-10-10--9--9--9--9-5-4---| AAAAAA
A|-7---------7---------7---------7---------10-10-10-10-10-10--9--9--9--9-5-4---| A    A
E|-0---------0---------0---------0----------8--8--8--8--8--8--7--7--7--7-3-2---| A    A

e|---10h12p0---10h12p0---10h12p0--10h12p10---------------------------------------| BBBB
B|----------------------------------------13-13-13-13-13-13-13-12-12-12----------| B   B
G|-9---------9---------9---------9-----------------------------------------------| BBBB
D|-x---------x---------x---------x-----------10-10-10-10-10-10--9--9--9--9-5-4---| B   B
A|-7---------7---------7---------7-----------10-10-10-10-10-10--9--9--9--9-5-4---| B   B
E|-0---------0---------0---------0------------8--8--8--8--8--8--7--7--7--7-3-2---| BBBB

OUTRO

e|-------------------------|
B|-0---------------------9-|
G|-2-[FIDDLE AROUND    ]-9-|
D|-2-[WITH THESE CHORDS]-9-|
A|-0---------------------7-|
E|-------------------------|
Related for What Sound Does A Mastodon Make tab
×
What Sound Does A Mastodon Make