Guitaretab - guitar tabs
Song name
# A B C D E F G H I J K L M N O P Q R S T U V W X Y Z

The Fall Of Troy - Shhh If Youre Quiet Ill Show You A Dinosaur tab

this is my first tab. :)

Intro:
E||------0-------------0---------------0-------------10-8---------3-------6|
B||o-6-----6-------6-----6------8--------8----8---------------3-----3------|
G||----7-----7-------7-----7------9-------------9-----------3---3-------3--|
D||-8-----------8-8-----------10-----10-----10-----10-----5-----------5----|
A||o-----------------------------------------------------------------------|
D||------------------------------------------------------------------------|

1.                           2.
PM-----|
E|-5---------0-----5-8S10--||--------------------------7*-|
B|-------1----------------o||--------------------------7*-|
G|-----2---2-----2---------||--------------------------7*-|
D|---3---------3-----------||-----------------------------|
A|------------------------o||-3-3--3-3--3-3--3-3----------|
D|-------------------------||-3-3--3-3--3-3--3-3----------|

E|-------------------------------------------------------|
B|-------------------------------------------------------|
G|-------7p0------7p0-9p0--------6p0---66-77-99-77-6p0---|\
D|-------------------------------------------------------| \
A|-------------------------------------------------------|  \
D|-88888-----8888----------77777-------------------------|   \
                                                              \
E|-----------------------------*-------------------------|    /4x on the
B|-----------------------------*---------------2---------|   / last time
G|-------3p0--3h6p3p0-3h6p3p0--*-------2p0-2h3---3p2p0---|  / dont play *
D|-----------------------------*-------------------------| /
A|-----------------------------*-------------------------|/
D|-55555-----------------------*33333--------------------|

E|--------------------------------|
B|--------------------------------|
G|--------------------------------|
D|--------------------------------|
A|--3-3--3-3--3-3--3-3---0~-------|
D|--3-3--3-3--3-3--3-3---0~-------|



Chorus:
[ Tab from: http://www.guitaretab.com/t/the-fall-of-troy/89567.html ]
E|---17-17---15-15---12-12----8--8---5--------------------|
B|----------------------------------------------3*--------|
G|---15-15---14-14---10-10---10-10---3--------------------|
D|--------------------------------------------------------|
A|-----------------8-------8------------------------------|\
D|-0---0---0---0-------0-------0---0---00000000----0000000| \
                                                             \
                                                             /2x
E|---17-17---15-15---12-12----8--8----------------------|  /
B|-----------------------------------10---------10------| /
G|---15-15---14-14---10-10---10-10--------7\---------7\-|/
D|-----------------------------------8----------8-------|
A|-----------------8-------8----------------------------|
D|-0---0---0---0-------0-------0---0----0-----0-----0---|

E|---------------------|  
B|--10-----------------| 
G|-------7\------------|
D|--8------------------|
A|------------0-00-0-0-|
D|0----0------0-00-0-0-|


E|-----------------------------------|
B|-----------------------------------|
G|-----------------------------------|
D|-----------------------------------|
A|-----------------------------------|
D|-xxxxxxxxxxxxxxxxxx----------------|
live he just does a pickscratch with delay on.

E|--------------------------------------------------------|
B|-------10------10-7--7--7--------7-------7----15-15-15-|
G|-------13------13-10-10-10-------10------10---18-18-18-|
D|--------------------------------------------------------|\
A|--------------------------------------------------------| \
D|-00000-----0000--------------00000----0000--------------|  \
                                                             /2x
E|--------------------------------------------------------| /
B|--------------------------------------------------------|/
G|--------------------------------------------------------|
D|--------------------------------------------------------|
A|--0-00-0-6p0-6--0-00-0-3p0-3----------------------------|
D|--0-00-06p0-6--0-00-03p0-3----------------------------|

E|---------------------------------------------------------|
B|---------------------------------------------------------|
G|---------------------------------------------------------|
D|---------------------------------------------------------|
A|--0-00-0-6p0-6--0-00-0-3p0-3-----------------------------|
D|--0-00-06p0-6--0-00-03p0-3-----------------------------|
                                
theres another guitar played here too but i dont know what it is. I'm sure you can figure it out.

E|-----------------------------------------------|
B|-----------------------------------------------|
G|-----------------------------------------------|
D|-----------------------------------------------|
A|-0-2-3-6-5-13-12121212-----0-2-3-6-5-1-0000000-|
D|-0-2-3-6-5-13-12121212-----0-2-3-6-5-1-0000000-|
those are twelves

chorus again

end with

E|---------------------|  
B|--10-----------------| 
G|-------7\------------|
D|--8------------------|
A|------------0-00-0-0-|
D|0----0------0-00-0-0-|
then noise
Related for Shhh If Youre Quiet Ill Show You A Dinosaur tab