Song name
# A B C D E F G H I J K L M N O P Q R S T U V W X Y Z

The Fall Of Troy - You Got A Death Wish Johnny Truant tab

THE FALL OF TROY - "YOU GOT A DEATH WISH, JOHNNY TRUANT?"

tabbed by: matddors@comcast.net

the other tabs weren't very good. this sounds right. this is just how i play it.


e|---------------------------------------------|   A 
B|--8p7----------------------------------------|  A A
G|-----9p7p0-----------5p4---------------------| A   A 
D|----------7h912/7-7-7---7p5p02/55-1010101010-| AAAAA 
A|-7-----------10/5-5-------------5-1010101010-| A   A
D|-------------10/5-5-------------5-1010101010-| A   A 

                       repeat end of 2nd time
e|--------------------|------------------------------|   A
B|--8p7---------------|------------0h3p0-------------|  A A
G|-----9p7p0----------|-55-55-4h5p0-----22-22--------| A   A
D|----------7h912/7-7-|-xx-xx-----------xx-xx-55-555-| AAAAA
A|-7-----------10/5-5-|-33-33-----------00-00-55-555-| A   A
D|-------------10/5-5-|-----------------------55-555-| A   A cont.


e|------------------------------------------------------------------| BBBB
B|-----15p12------15p12--17p0h12-----15p12------20p17p01517171715p0-| B   B
G|----------12p0-------12-----------------12p0----------------------| BBBB
D|-14----------------------------14---------------------------------| B   B
A|-14----------------------------14---------------------------------| B   B
D|-14----------------------------14---------------------------------| BBBB

e|-----------------------------------------------|  CCCC
B|-88-8-77-7-33-3-55-5-88-8-77-7-1313-13-1212-12-| C    C
G|-99-9-77-7-44-4-55-5-99-9-77-7-1414-14-1212-12-| C
D|-99-9-77-7-44-4-55-5-99-9-77-7-1414-14-1212-12-| C
A|-77-7-55-5-22-2-33-3-77-7-55-5-1212-12-1010-10-| C    C
D|-----------------------------------------------|  CCCC

e|----------------------------| DDDDD
B|----------------------------| D    D
G|----------------------------| D    D
D|-7--2--14----------10101010-| D    D
A|-7--2--14----------10101010-| D    D
D|-7--2--14--1010101010101010-| DDDDD
              . . . . 

e|---------------------------------------------|   A 
B|--8p7----------------------------------------|  A A
G|-----9p7p0-----------5p4---------------------| A   A 
D|----------7h912/7-7-7---7p5p02/55-1010101010-| AAAAA 
A|-7-----------10/5-5-------------5-1010101010-| A   A
D|-------------10/5-5-------------5-1010101010-| A   A 

                       repeat end of 2nd time
e|--------------------|------------------------------|   A
B|--8p7---------------|------------0h3p0-------------|  A A
G|-----9p7p0----------|-55-55-4h5p0-----22-22--------| A   A
D|----------7h912/7-7-|-xx-xx-----------xx-xx-55-555-| AAAAA
A|-7-----------10/5-5-|-33-33-----------00-00-55-555-| A   A
D|-------------10/5-5-|-----------------------55-555-| A   A cont.

e|----------------------------------------------------------------------------| EEEEE
B|----------------------------------------------------------------------------| E
G|----------------------------------------------------------------------------| EEEE
D|----------------------------------------------------------------------------| EEEE
A|-0h3p0-0h3p0-0h3p0-0h2p0-0h2p0-0h2p0-0h5p0-0h5p0-0h5p0-0h8p0-12p0-14p0-15p0-| E
D|----------------------------------------------------------------------------| EEEEE

e|---------------------------------------------------2450-| EEEEE
B|------------------------------------------------245-----| E
G|---------------------------------------------124--------| EEEE
D|------------------------------------------024-----------| EEEE
A|-0h3p0-0h3p0-0h3p0-0h2p0-0h2p0-0h2p0---024--------------| E
D|-------------------------------------46-----------------| EEEEE cont.


ORDER:
A
A
B
B
C
C
D
A
A
E
E
Tap to rate this tab
# A B C D E F G H I J K L M N O P Q R S T U V W X Y Z