Song name
# A B C D E F G H I J K L M N O P Q R S T U V W X Y Z

The Fall Of Troy - Oh The Casino tab

e----------------------------------------|
b------5--------5--------5---------------|
g--------5--------5--------5--333333-5---|  } all x2
d-7777-----7777-----7777-----------------|
a----------------------------------------|
d----------------------------------------|


e---------------------------------------------------------------------------|
b---------------------------------------------------------------------------|
g---------------------------------------------------------------------------|
d---------------------------------------------------------------------------|
a-333333-101010101010-121212121212-888888-333333-111111-00000--5-7-9999-7-5-|
d-333333-101010101010-121212121212-888888-333333-111111-00000--5-7-9999-7-5-|


e-
b-
g-
d---3----3------10------10-------12------12-------8------8----|
a-----3----3-------10------10-------12------12------8------8--|
d-3-----3-----10------10-------12------12-------8------8------|

continued

e------------------------------------------------|
b------------------------------------------------|
g------------------------------------------------|
d---3-----3------1-----1---0---------------------|
a-----3-----3------1----1----0------5-7-9999-7-5-|
d-3-----3------1-----1----0----0----5-7-9999-7-5-|

e----------------------------------------|
b------5--------5--------5---------------|
g--------5--------5--------5--333333-5---|
d-7777-----7777-----7777-----------------|
a----------------------------------------|
d----------------------------------------|

palm mute on below

e---------------------------------------------------------------------------|
b---------------------------------------------------------------------------|
g---------------------------------------------------------------------------|
d---------------------------------------------------------------------------|
a-333333-101010101010-121212121212-888888-333333-111111-00000--5-7-9999-7-5-|
d-333333-101010101010-121212121212-888888-333333-111111-00000--5-7-9999-7-5-|

un mute

e---------------------------------------------------------------------------|
b---------------------------------------------------------------------------|
g---------------------------------------------------------------------------|
d---------------------------------------------------------------------------|
a-333333-101010101010-121212121212-888888-333333-111111-00000--5-7-9999-7-5-|
d-333333-101010101010-121212121212-888888-333333-111111-00000--5-7-9999-7-5-|


e-------------------------------------------------|
b-------------------------------------------------|
g-------------------------------------------------|
d-------------------------------------------------| } x2
a-5-7-9-5-7-9-5-7-9-5-7-9-3-5-7-3-5-7-3-5-7-3-5-7-|
d-5-7-9-5-7-9-5-7-9-5-7-9-3-5-7-3-5-7-3-5-7-3-5-7-|

solo

e--------------------------------------------------|
b--------------------------------------------------|
g--------------------------------------------------|
d--------------------------------------------------|
a-5-7-9-5-7-9-5-7-9-5-7-9-3-5-7-3-5-7-3-5-7-10-9-7-|
d--------------------------------------------------|

e----------------------------888888--------------------------|
d-----------------------------------101010101010101010101010-|
g-777777-999999-101010101010---------------------------------|
d------------------------------------------------------------|
a------------------------------------------------------------|
d------------------------------------------------------------|

e----------------------------------------|
b------5--------5--------5---------------|
g--------5--------5--------5--333333-5---|
d-7777-----7777-----7777-----------------|
a----------------------------------------|
d----------------------------------------|

end

e------------------------------------------|
b------5--------5--------5-----------------|
g--------5--------5--------5--333333-5-3---|
d-7777-----7777-----7777-------------------|
a----------------------------------------3-|
d----------------------------------------3-|
Tap to rate this tab
 
# A B C D E F G H I J K L M N O P Q R S T U V W X Y Z