Song name
# A B C D E F G H I J K L M N O P Q R S T U V W X Y Z

The Fall - The Classical tab

Main Chords:
G# A# F# B F#

"I've never felt better in my life" riff
E|-4-4-1-1-4-4-6-6-2-2----|
B|-4-4-1-1-4-4-6-6-2--2---|
G|----------------------3-|
D|------------------------|
A|------------------------|
E|------------------------|
this riff is played in some live versions as
E|6-6-3-3-6-6-8--8--4-|
B|9-9-6-6-9-9-11-11-7-|
G|8-8-5-5-8-8-10-10-6-|
D|6-6-3-3-6-6-8--8--4-|
A|6-6-3-3-6-6-8--8--4-|
E|--------------------|

that's all there is to it!
Tap to rate this tab
# A B C D E F G H I J K L M N O P Q R S T U V W X Y Z