Song name
# A B C D E F G H I J K L M N O P Q R S T U V W X Y Z

The Family Rain - Binocular tab

-------------------------------------------------------------------------------
                         BINOCULAR - The Family Rain
-------------------------------------------------------------------------------
Tabbed by: Jack Reese
E-mail: jack.reese@ntlworld.com

Tuning: Standard

Verse/Intro:
e|---------------------------------------------------------------------------|
B|-5---2-----------2---------------------------------------------------------|
G|---------2---4-------4p2-----2---2-----------------------------------------|
D|-------------------------4-------------------------------------------------|
A|-0-0-0-0-0-0-0-0-0-0-0-0-0-0-0-0-0-----------------------------------------|
E|---------------------------------------------------------------------------|

Last two lines of the are F#m and A (when the backing singing comes in)

Chorus:
e|---------------------------------------------------------------------------|
B|---------------------------------------------------------------------------|
G|------4-6-------4-6-------4-6--9-6-4---------4-6-------4-6-------4-6-4-----|
D|-4-7-------4-7-------4-7-------------7--4-7-------4-7-------4-7------------|
A|---------------------------------------------------------------------------|
E|---------------------------------------------------------------------------|
Tap to rate this tab
# A B C D E F G H I J K L M N O P Q R S T U V W X Y Z