Song name
# A B C D E F G H I J K L M N O P Q R S T U V W X Y Z

The Farm - All Together Now chords

Highlighted       Show chord diagrams
-------------------------------------------------------------------------------
                             ALL TOGETHER NOW – The Farm
-------------------------------------------------------------------------------
Tabbed by: Leigh Mullin
E-mail: leigh_mullin@yahoo.com

Chords : D A Bm F#m G D G A

Intro:
|-11-10--------7---------|-11-10--------7---------|-11-10--------7-----------|
|-------7h8h10---10-8-7--|-------7h8h10---10-8-7--|-------7h8h10---10-8-7----|
|------------------------|------------------------|--------------------------|
|------------------------|------------------------|--------------------------|
|------------------------|------------------------|--------------------------|
|------------------------|------------------------|--------------------------|

|-11-10--------7---------|-11-10--------7---------|-11-10--------7-----------|
|-------7h8h10---10-8-7--|-------7h8h10---10-8-7--|-------7h8h10---10-8-7----|
|------------------------|------------------------|--------------------------|
|------------------------|------------------------|--------------------------|
|------------------------|------------------------|--------------------------|
|------------------------|------------------------|--------------------------|


D                      A
Remember boy that your forefathers died
Bm                     F#m
Lost in millions for a country's pride
G                          D
But they never mention the trenches of Belgium
G                           A
When they stopped fighting and they were one

D                      A
A spirit stronger than war was at work that night
Bm                     F#m
December 1914 cold, clear and bright
G                       D
Countries' borders were right out of sight
G                           A
When they joined together and decided not to fight

D            A
All together now
Bm           F#m
All together now
G            D
All together now
G                 A
In no man's land, together

D            A
All together now
Bm           F#m
All together now
G            D
All together now
G                 A
In no man's land, together


The same old story again
All those tears shed in vain
Nothing learnt and nothing gained
Only hope remains

All together now
All together now
All together now
In no man's land, together

All together now
All together now
All together now
In no man's land, together

All together now
All together now
All together now
In no man's land, together

All together now
All together now
The boys had their say, they said no
Stop the slaughter and let's go home
Let's go, let's go, let's go, let's go, let's go

The boys had their say, they said no
Stop the slaughter and let's go home
Let's go, let's go, let's go, let's go home

All together now
All together now
All together now
In no man's land, together

All together now
All together now
All together now
In no man's land, together

The boys had their say they said no
Stop the slaughter and let's go home
Let's go, let's go, let's go home

The boys had their say they said no
Stop the slaughter and let's go home
Let's go, let's go, let's go, let's go, let's go, let's go home

All together now
All together now
All together now
In no man's land, together

All together now
All together now
All together now…
Tap to rate this tab
# A B C D E F G H I J K L M N O P Q R S T U V W X Y Z