Song name
# A B C D E F G H I J K L M N O P Q R S T U V W X Y Z

The Fashion - Like Knives tab

    _______________
   / The Fashion  /
  / Like Knives  /
 / The Fashion  /
/______________/

There's actually not that much to learn. In all it's only 3 different guitars
coming in and out, each one playing its riff; almost like samples.
The bass then determines the root of whatever unusual chord come out of mixing
these different guitar "samples". This song is as indie rock as it gets! :)



 Guitar 1
***********
  C#sus4                  C#m
|----9--9-----9---9---9-|----9--9-----9---9---9-|
|----9--9-----9---9---9-|----9--9-----9---9---9-|
|---11-11----11--11--11-|----9--9-----9---9---9-|
|---11-11----11--11--11-|---11-11----11--11--11-|
|-----------------------|-----------------------|
|-----------------------|-----------------------|

  F#m                     A
|----9--9-----9---9---9-|----9--9-----9---9---9-|
|---10-10----10--10--10-|---10-10----10--10--10-|
|---11-11----11--11--11-|----9--9-----9---9---9-|
|---11-11----11--11--11-|---11-11----11--11--11-|
|-----------------------|-----------------------|
|-----------------------|-----------------------|




 Guitar 2
***********
Plays an 8-bar riff. Play the first bar 3 times with the first ending (4),
then play it another 3 times with the last ending (8).
Let all the strings ring out.

(1-3)(5-7)                             (4)               (8)
|-------2-----0-------0---0-----|      |-2------4------| |-0------0------|
|---0-------0---4--p0-------0---|      |-0------0------| |-2------4------|
|-------------------------------| 3x   |---------------| |---------------|
|-------------------------------|      |---------------| |---------------|
|-------------------------------|      |---------------| |---------------|
|-------------------------------|      |---------------| |---------------|


In the last 2 bars of the Intro, before entering, play this little fill.
Strum the two notes and slowly bend the B-string up to match the E note:
|-0-------------|---------------|
|-4b5-----------|---------------|
|---------------|---------------|
|---------------|---------------|
|---------------|---------------|
|---------------|---------------|

Also, in the verses produce some distorted screaming notes in the background.
I didn't transcribe this since it's very vague and impossible to decipher.




 Guitar 3
***********
  A                  B                  E                  F#m
|---5-5----5--5--5-|---7-7----7--7--7-|---0-0----0--0--0-|---2-2----2--2--2-|
|---5-5----5--5--5-|---7-7----7--7--7-|---0-0----0--0--0-|---2-2----2--2--2-|
|---6-6----6--6--6-|---8-8----8--8--8-|---1-1----1--1--1-|---2-2----2--2--2-|
|---7-7----7--7--7-|---9-9----9--9--9-|---2-2----2--2--2-|---4-4----4--4--4-|
|---7-7----7--7--7-|---9-9----9--9--9-|---2-2----2--2--2-|---4-4----4--4--4-|
|---5-5----5--5--5-|---7-7----7--7--7-|---0-0----0--0--0-|---2-2----2--2--2-|


 The chord names of Guitar 3 altogehter with Guitar 1 would be:
  | Amaj7(add13) | B13(no7) | E13(no7) | F#m7 |




--------------------------------------------------------------------------------

  Song Structure:
                          [bars]        [guitars]

 Intro                     2 x  4        1

 Chorus (instrumental)     2 x  4        1 + 2

 1. Verse                  4 x  4        1 + (2)

 Chorus (a capella)        2 x  4        %

 2. Verse                  4 x  4        1 + (2)

 2x Chorus                 4 x  4        1 + 2 + 3

 Breakdown                 1 x  4        3

 Breakdown-Chorus          2 x  4        3 + 1

 4x Chorus                 8 x  4        1 + 2 + 3



+------------------------------------------------------------------------------+
Jon Sebastian Frederiksen - 22nd May /10
Just mail me at Maitinin@gmail.com with questions, comments and corrections!
Tap to rate this tab
# A B C D E F G H I J K L M N O P Q R S T U V W X Y Z