Song name
# A B C D E F G H I J K L M N O P Q R S T U V W X Y Z

The Fastest Kid Alive - Summer Forever tab

Help us improve GuitareTab! Take a short survey!
Intro Riff #1 (x8)
0:01 - 0:12
e|-------------|
B|--------8----|
G|----6--------|
D|--7---7------|
A|-------------|
E|-------------|
Intro Riff #2 (x2)
  0:13 - 0:26
e|-----------------------------------------------------|
B|-----------------------------------------------------|
G|---/9-7-5-5-5---5--7--7-5--/9-7-5-5-5-7/9-11-9-7-7-5-|
D|--------------/6--6----------------------------------|
A|-----------------------------------------------------|
E|-----------------------------------------------------|
Related for Summer Forever tab