Song name
# A B C D E F G H I J K L M N O P Q R S T U V W X Y Z

The Features - Oh My Love tab

-------------------------------------------------------------------------------
			     Serious - The Features
-------------------------------------------------------------------------------
Tabbed by: Steven Gladman
Email: stevie.gladman@ntlworld.com 

Tuning: EADGBe

Intro
C# C# A# A A G#

Verse
Bass keeps playing cord progession while keyboard plays below part.


e|--9---9----9---9-------------------6-4-6----6-4-6----6-5-4----5---12p11h12-|
B|----9---12---9---12--12-11-10-9----------6--------6------------------------|
G|---------------------------------------------------------------------------|
D|---------------------------------------------------------------------------|
A|---------------------------------------------------------------------------|
E|---------------------------------------------------------------------------|

e|-5--12p11h12---4-----------------------------------------------------------|
B|---------------------------------------------------------------------------|
G|--------------------1--3-4-5-----------------------------------------------|
D|---------------------------------------------------------------------------|
A|---------------------------------------------------------------------------|
E|---------------------------------------------------------------------------|  Repeat all X 2

Chorus
C# C# A# A A G#

Verse

Chorus
C# C# A# A A G#  X 2

Bridge
C# C# A# A A G#  X 2

Chorus
C# C# A# A A G#  X 2

| /  slide up
| \  slide down
| h  hammer-on
| p  pull-off
| ~  vibrato
| +  harmonic
| x  Mute note
Tap to rate this tab
 
# A B C D E F G H I J K L M N O P Q R S T U V W X Y Z