Song name
# A B C D E F G H I J K L M N O P Q R S T U V W X Y Z

The Features - Lions tab

tabbed by Lukas M. from Germany

e-----------------------------------------------------------------------|
b-----------------------------------------------------------------------|
g-------------------------------9---------------------------------------|
a-----------------------7~-9/11---11\9-7--------------------------------|
d-------------------7--------------------9------------------------------|
e-2-2-0-2-0-2/5-7/9---9-------------------------------------------------|

e-----------------------------------------------------------------------|
b-----------------------------------------------------------------------|
g---------------------------666-444-222-111-1---------------------------|
a-----------------------7~--777-666-444-222-2-4-4-2-4-2-4-2~------------|
d-------------------7----------------------------------------4-2-0------|
e-2-2-0-2-0-2/5-7/9---9--------------------------------------------2----|

e-------------------|--3x-prechorus-------------------------------------|
b-------------------|---------------------------------------------------|
g-------------------|---------------------------------------------------|
d-------------------|---------------------------------------------------|
a-------------------|---------------------------------------------------|
e-222-444-555-777---|----10-9-7----after 3 times end on 5---------------|

chorus & verse
A5
C#5
F#5
Tap to rate this tab
# A B C D E F G H I J K L M N O P Q R S T U V W X Y Z