Song name
# A B C D E F G H I J K L M N O P Q R S T U V W X Y Z

The Features - Me And The Skirts tab

-------------------------------------------------------------------------------
			     Me and The Skirts - The Features
-------------------------------------------------------------------------------
Tabbed by: Steven Gladman
Email: stevie.gladman@ntlworld.com

Tuning: E A D G B e


e|-----------------|
B|--10---10---10---|
G|-----9----9------|
D|-----------------|
A|-----------------|(Keyboard for Guitar X 4) Played over guitar and bass playing A
E|-----------------|

VERSE - Bass Plays (no Guitar)

CHORUS 

"Oh What a Pity..."

C G D A X 4

e|-----------------|
B|--10---10---10---|
G|-----9----9------|
D|-----------------|
A|-----------------|(Keyboard for guitar X 4) Played over guitar and bass playing A 
E|-----------------|


CHORUS - Bass only

"Oh What a Pity..."

C G D A X 4

BRIDGE D E F G


e|----------------|
B|-------5-4-3-1--|
G|--5--2----------|
D|----------------|
A|----------------|
E|----------------| X 2

  D E F G

e|----------------|
B|-------5-4-3-1--|
G|--5--2----------|
D|----------------|
A|----------------|
E|----------------|

e|----------------|
B|-5---3-1-0------|
G|----------------|
D|----------------|
A|----------------|
E|----------------| (Keyboard part for guitar) Play E over this

VERSE - Light Guitar Fingerpicking of D E F G

CHORUS - D E F G

Finish on E


| /  slide up
| \  slide down
| h  hammer-on
| p  pull-off
| ~  vibrato
| +  harmonic
| x  Mute note
===============================================================================
Tap to rate this tab
# A B C D E F G H I J K L M N O P Q R S T U V W X Y Z