Song name
# A B C D E F G H I J K L M N O P Q R S T U V W X Y Z

The Features - 33 And A Third tab

-------------------------------------------------------------------------------
			     33 1/3 - The Features
-------------------------------------------------------------------------------
Tabbed by: Steven Gladman
Email: stevie.gladman@ntlworld.com

Tuning: EADGBe

Intro
Bass starts playing thr following chords

G C A C X 3

e|---------------------------------------------------------------------|
B|------3------3---------5--8---5--8-------5-----5---------5--8---5--8-|
G|----4------4-----4---5------5----------5-----5-----5---5------5------|
D|--5------5-----5---------------------7-----7-----7-------------------|
A|---------------------------------------------------------------------| X 2
E|---------------------------------------------------------------------| 
This is the keyboard part played over the intro chords.

Verse 
G C A C X 4

Pre-Chorus
A G D

e|--5-5--5-5--3-3--3-3--2-3--2-3---|
B|--5-5--5-5--3-3--3-3--3-3--3-3---|
G|---------------------------------|
D|---------------------------------|
A|---------------------------------|
E|---------------------------------| X 2 (played with the above chords)

Chorus
e|------------------------------------------------------|
B|------------------------------------------------------|
G|----------------------0-----0-----0------2-----2------|
D|-----0-----0--------2-----2-----2------2-----2-----2--|
A|---2-----2-----2--3-----3-----3------0-----0-----0----| X 2
E|-3-----3-----3----------------------------------------|

A G A C

G C A C

e|---------------------------------------------------------------------|
B|------3------3---------5--8---5--8-------5-----5---------5--8---5--8-|
G|----4------4-----4---5------5----------5-----5-----5---5------5------|
D|--5------5-----5---------------------7-----7-----7-------------------|
A|---------------------------------------------------------------------| X 2
E|---------------------------------------------------------------------| 

Verse (Bass on it's own)
G C A C
Guitar comes in after 2 playing the same chords

Pre-Chorus
A G D

e|--5-5--5-5--3-3--3-3--2-3--2-3---|
B|--5-5--5-5--3-3--3-3--3-3--3-3---|
G|---------------------------------|
D|---------------------------------|
A|---------------------------------|
E|---------------------------------| X 2 (played with the above chords)


Chorus
e|------------------------------------------------------|
B|------------------------------------------------------|
G|----------------------0-----0-----0------2-----2------|
D|-----0-----0--------2-----2-----2------2-----2-----2--|
A|---2-----2-----2--3-----3-----3------0-----0-----0----| X 2
E|-3-----3-----3----------------------------------------|

A G A C

Bridge 
D C B A      X 2

e|------------------|
B|------------------|
G|------------------|
D|------------------|
A|----------5--3-2--|
E|--3---5-7---------| X 2

D C B A     

e|------------------------------------------------------|
B|------------------------------------------------------|
G|----------------------0-----0-----0------2-----2------|
D|-----0-----0--------2-----2-----2------2-----2-----2--|
A|---2-----2-----2--3-----3-----3------0-----0-----0----| X 2
E|-3-----3-----3----------------------------------------|

A G A C

G C A C

e|---------------------------------------------------------------------|
B|------3------3---------5--8---5--8-------5-----5---------5--8---5--8-|
G|----4------4-----4---5------5----------5-----5-----5---5------5------|
D|--5------5-----5---------------------7-----7-----7-------------------|
A|---------------------------------------------------------------------| X 8
E|---------------------------------------------------------------------| 



| /  slide up
| \  slide down
| h  hammer-on
| p  pull-off
| ~  vibrato
| +  harmonic
| x  Mute note
===============================================================================
Tap to rate this tab
# A B C D E F G H I J K L M N O P Q R S T U V W X Y Z