Song name
# A B C D E F G H I J K L M N O P Q R S T U V W X Y Z

The Features - D-con Radio 1 tab

-------------------------------------------------------------------------------
			     D-Con (Radio 1) - The Features
-------------------------------------------------------------------------------
Tabbed by: Steven Gladman
Email: stevie.gladman@ntlworld.com

Tuning: EADGBe


Intro
A E F# D    X 4

Chorus (bass and keyboard)

Verse
A E F# D  X 8

Pre-Chorus
B E A F#
B E A

A D C# B   X 4
E B
A D C# B

Chorus(Bass and Keyboard)

Bridge
Keyboard plays below over A E F# D

e|---------------|
B|---------------|
G|---------------|
D|-7-7-7-7-7-7---| repeat until change 
A|---------------|
E|---------------|

e|--------------------------|
B|--------------------------|
G|----11-9------------------|
D|-7--------11--9--7--------|
A|-------------------9--7---| X 2
E|--------------------------|

e|--------------------------|
B|--10----------------------|
G|-----11--9----------------|
D|-----------11-9-7-----7---|
A|------------------9-7-----|
E|--------------------------|

A D C# B   X 4
E B
A D C# B

Verse
A E F# D  X 2

Chorus (bass and keyboard)

A D C# B   X 8

Chorus (bass and keyboard)

| /  slide up
| \  slide down
| h  hammer-on
| p  pull-off
| ~  vibrato
| +  harmonic
| x  Mute note
Tap to rate this tab
 
# A B C D E F G H I J K L M N O P Q R S T U V W X Y Z