Song name
# A B C D E F G H I J K L M N O P Q R S T U V W X Y Z

The Features - Foundations Cracked tab

-------------------------------------------------------------------------------
			     Foundations Cracked (Based On Live Recording) - The Features
-------------------------------------------------------------------------------
Tabbed by:Steven Gladman
Email: stevie.gladman@ntlworld.com

Tuning: EADGBE

Bass Intro/verse

guitar comes in at the chorus where Matt sings "Oh but wind will Blow..."

A#     D# F F# G#   x2

verse

Chorus

Solo

e|--------------------------------------------------------|
B|---^--------------12-12-^-------------------------------|
G|---13-11-------11-------13-11-------------11------------|
D|---------13-13----------------13----11-13----13---------|
A|---------------------------------14-------------14-13---|
E|--------------------------------------------------------|


e|--------------------------------------------------------|
B|---^---------------14-------^---------------------------|
G|---13-11-------11-----11-13-13-11--------------11-------|
D|---------13-13--------------------13-----11-13----13----|
A|-------------------------------------14--------------9--|
E|--------------------------------------------------------|

Finish on verse with bass



| /  slide up
| \  slide down
| h  hammer-on
| p  pull-off
| ~  vibrato
| +  harmonic
| x  Mute note
===============================================================================
Tap to rate this tab
# A B C D E F G H I J K L M N O P Q R S T U V W X Y Z