Guitaretab - guitar tabs
Song name
# A B C D E F G H I J K L M N O P Q R S T U V W X Y Z

The Features - Hold You Alone tab

-------------------------------------------------------------------------------
			     Hold (You Alone) - The Features
-------------------------------------------------------------------------------
Tabbed by: Steven Gladman
Email: stevie.gladman@ntlworld.com

Tuning: EADGBE

Intro
e|---------------------|
B|---------------------|
G|---------------8-----|
D|-3/4-4-4-4--8--8--8--|
A|-3/4-4-4-4--8--6--8--|
E|-1/2-2-2-2--6-----6--|

Verse W/guitar
F# D# A# D# A# X 8  

The keyboard comes in after the verse is played 4 times playing the below.



e|----2-2-2-2-2-2-2-----2----2--|
B|------------------2-2---2-2---|
G|------------------------------|
D|------------------------------|
A|------------------------------|
E|--2---------------------------| X 4


Chorus

A#  A G#  X4


Pre-verse
F# D# A# D# A#   X 2

Verse without guitar
[ Tab from: http://www.guitaretab.com/t/the-features/67067.html ]
Chorus X 2

e|----2-2-2-2-2-2-2-------2--------2-----|
B|--------------------2-2------2-2-------|
G|---------------------------------------|
D|---------------------------------------|
A|---------------------------------------|
E|--2------------------------------------| 

e|---------------2-----------------------|
B|----------------2----------------------|
G|------------------3------2h3-------2h3-|
D|-------------------4-------------------|
A|--------------------4------------------|
E|---------------------2-----------------|  These 2 parts (keyboard and guitar play together in the end.
                                            It has written to show they are playing at the same time.



| /  slide up
| \  slide down
| h  hammer-on
| p  pull-off
| ~  vibrato
| +  harmonic
| x  Mute note
===============================================================================
Related for Hold You Alone tab
Advertisement will be closed in 10 seconds