Song name
# A B C D E F G H I J K L M N O P Q R S T U V W X Y Z

The Features - Someway Somehow tab

-------------------------------------------------------------------------------
			     Someway, Somehow - The Features
-------------------------------------------------------------------------------
Tabbed by: Steven Gladman
Email: stevie.gladman@ntlworld.com

Tuning: EADGBe

Intro/Verse

e|-----------------------------------|
B|---2---2---2---2---2---2---2---2---|
G|-1---1---1---1---1---1---1---1-----|
D|-----------------------------------|
A|-----------------------------------|
E|-----------------------------------|

Chorus
F F#   F A#   F F#  A#          X 2
F# F C#                         X 4

Verse


Chorus
F F#   F A#   F F#  A#          X 2
F# F C#                         X 8

Bridge
C# G# A#   D# A# G#             x 2

Chorus
F F#   F A#   F F#  A#          X 2
F# F C#                         X 8

Finish with the guitar playing

e|-----------------------------------|
B|---2---2---2---2---2---2---2---2---|
G|-1---1---1---1---1---1---1---1-----|
D|-----------------------------------|
A|-----------------------------------|
E|-----------------------------------|

| /  slide up
| \  slide down
| h  hammer-on
| p  pull-off
| ~  vibrato
| +  harmonic
| x  Mute note
Tap to rate this tab
# A B C D E F G H I J K L M N O P Q R S T U V W X Y Z