Song name
# A B C D E F G H I J K L M N O P Q R S T U V W X Y Z

The Features - Temporary Blues tab

-------------------------------------------------------------------------------
			     Temporary Blues - The Features
-------------------------------------------------------------------------------
Tabbed by: Steven Gladman
Email: stevie.gladman@ntlworld.com

Tuning:EADGBe


Intro/Verse

e|----------------------------------------------------|
B|----------------------------------------------------|
G|-3-4-4--4--4-4--3-4-4-4-4-4-4-----------------------|
D|-3-4-4--4--4-4--3-4-4-4-4-4-4-3-4-4-4---3-4-4-4-4-4-|  X 4
A|-1/2-2--2--2-2--1/2-2-2-2-2-2-3-4-4-4---3-4-4-4-4-4-|
E|------------------------------1/2-2-2---1/2-2-2-2-2-|

CHORUS

A B F#

e|-2--2-0-2-0-2-5----|
B|-------------------|
G|-------------------| Keyboard Riff
D|-------------------|  (played after F#)
A|-------------------| 
E|-------------------|                          X2


e|----------------------------------------------------|
B|----------------------------------------------------|
G|-3-4-4--4--4-4--3-4-4-4-4-4-4-----------------------|
D|-3-4-4--4--4-4--3-4-4-4-4-4-4-3-4-4-4---3-4-4-4-4-4-|  X 2
A|-1/2-2--2--2-2--1/2-2-2-2-2-2-3-4-4-4---3-4-4-4-4-4-|
E|------------------------------1/2-2-2---1/2-2-2-2-2-|

CHORUS

A B F#

e|-2--2-0-2-0-2-5----|
B|-------------------|
G|-------------------| Keyboard Riff
D|-------------------|  (played after F#)
A|-------------------| 
E|-------------------|                          X2

Bridge

e|-9----9----9----9----8----8----8----8--------|
B|---10---10---10---10---10---10---10---10-----|
G|---------------------------------------------|
D|---------------------------------------------|
A|---------------------------------------------|
E|---------------------------------------------| X 4

e|----------------------------------------------------|
B|----------------------------------------------------|
G|-3-4-4--4--4-4--3-4-4-4-4-4-4-----------------------|
D|-3-4-4--4--4-4--3-4-4-4-4-4-4-3-4-4-4---3-4-4-4-4-4-|  X 2
A|-1/2-2--2--2-2--1/2-2-2-2-2-2-3-4-4-4---3-4-4-4-4-4-|
E|------------------------------1/2-2-2---1/2-2-2-2-2-|

CHORUS

A B F#

e|-2--2-0-2-0-2-5----|
B|-------------------|
G|-------------------| Keyboard Riff
D|-------------------|  (played after F#)
A|-------------------| 
E|-------------------|                          X4



| /  slide up
| \  slide down
| h  hammer-on
| p  pull-off
| ~  vibrato
| +  harmonic
| x  Mute note
===============================================================================
Tap to rate this tab
 
# A B C D E F G H I J K L M N O P Q R S T U V W X Y Z