The Felice Brothers - River Jordan chords

Highlighted       Show chord diagrams
-------------------------------------------------------------------------------
			     River Jordan - The Felice Brothers
-------------------------------------------------------------------------------

Tabbed by: Yoshima

Tuning: Standard

.....C......Em.....Am.....F......G......C7...
e|---0------0------0------1------3------0---|
B|---1------0------1------1------3------1---|
G|---0------0------2------2------0------3---|
D|---2------2------2------3------0------2---|
A|---3------2------0------3------2------3---|
E|----------0-------------1------3----------|


------------------------------------------------

Intro


C......Em......Am......F......

C.....G.....C....

x2

------------------------------------------------



......C.........................Em.....
River Jordan, won't you wake my pharaoh,

...................Am..............................F.....
so we can teach my people to walk the straight and narrow,

C.....G.....C.....


.........C..........................Em......
Come lie beside me in a horse-drawn carriage,

....................Am..............................F......
dragged through the thorns past the morgue past the palace,

C....G.....C.....


F...........C...........F..........................C.....
Oh lord i want to go, back to the land that i once knew,

....F...........................C....
far past these fields of bloody snow, 

............F.................G..................C..
back to the sand, back to the sand, back home again,


------------------------------------------------


(C)......Em......Am......F......

C.....G.....C....

x4

------------------------------------------------


.........C...
Fuck the news,

......................F..
Fuck the house of blues,

................Am....G.................C.....(C7)
Fuck my whole career, you don't want me here,

.......C.........................F..
Let me know, where my loved ones go,
 
..........................Am...
it's not fair to keep 'em here,

...............C..
tell me what i did,

............C............................F...
and take me back, to where no world was black,

...................Am.....................C....
before the sun was made, a pigment in the shade,

F.....................C........F..................C....
oh, oh lord i want to go, back to the land i once knew,

....F.........................C......
far past these fields of bloody snow,
 
............F.................G...............C....
back to the sand, back to the sand, back home again,

C...F...Am...C....

------------------------------------------------


END
Tap to rate this tab
 
# A B C D E F G H I J K L M N O P Q R S T U V W X Y Z