The Felice Brothers - Marlboro Man chords

Highlighted       Show chord diagrams
-------------------------------------------------------------------------------
			Marlboro Man - The Felice Brothers
-------------------------------------------------------------------------------

Tabbed by: Yoshima

Tuning: Standard


Capo on 2nd fret

....Em......Am.....G......C......F....
e|---0------0------3------0------1---|
B|---0------1------3------1------1---|
G|---0------2------0------0------2---|
D|---2------2------0------2------3---|
A|---2------0------2------3------3---|
E|---0------0------3------0------1---|



Em...................
..it's almost definite

Am............................
...I'm really on my way to hell

F......G............C...
...Get down dog get down
 

Em........................
...I'll be your only friend

Am....................
...Kill you in the end

F......G............C...
...Get down dog get down


--------------------------------

 
Am............G................C.........F.....
...What's the meaning of these shows you watch?

Am............G................C........F.....
...What's the meaning of these rows of clocks?

Am............C..........G....
...What's the meaning of love?


--------------------------------


Em...........................
...He still won't eat a thing

Am.......................
...He's a goddam skeleton

F......G............C...
...Get down dog get down


Em...........................
...The priest is on his way

Am.......................
...To give his last hooray

F......G............C...
...Get down dog get down
 

--------------------------------


Am............G...............C........F.....
...What's the meaning of this cross he waves?

Am............G...............C......F.....
...What's the meaning of this lost parade?

Am............C..........G....
...What's the meaning of love?
 

--------------------------------


D.......A..........D......
...Come along miss america

D........A.........D...
...Come along with me

Bm...............A...........D...........G....
...Your marlboro man's never coming home again

Bm...................A.
...But you still got me
 
--------------------------------

F#m........Bm........G....A..D..

F#m........Bm........G....A..D..

--------------------------------


Em...........................
...Two lovers in the park

Am....................
...It's way after dark

F......G............C...
...Get down dog get down


Em...........................
...The boss are in the shade

Am..........................
...The workers all been paid

F......G............C...
...Get down dog get down


--------------------------------


Am............G...............C........F.....
...What's the meaning of this flag you fly?

Am............G...............C........F.....
...What's the meaning of this firework sky?

Am............C..........G....
...What's the meaning of love?


--------------------------------

 
C.......G..........C......
...Come along miss america

C........G.........C...
...Come along with me

Am...............G...........C...........F....
...Your marlboro man's never coming home again

Am...................G..... Am..
...But you still got me


--------------------------------

END.
Tap to rate this tab
 
# A B C D E F G H I J K L M N O P Q R S T U V W X Y Z