The Felice Brothers - Fire At The Pageant tab

-------------------------------------------------------------------------------
       	        	Fire at the Pageant - The Felice Brothers
-------------------------------------------------------------------------------

Tabbed by: Yoshima

Tuning: Standard


....Em.....Am......B......A....
e|---7------5------7------5---|
B|---8------5------7------5---|
G|---9------5------8------6---|
D|---9------7------9------7---|
A|---7------7------9------7---|
E|---7------5------7------5---|



Intro:

Played loose...

e|--7----5-----------------------5-------------------------------------------|
B|----------8--7--------------5-----8--7-----------3--------------5--5/7-----|
G|---------------------------------------------------------------------------|
D|-----5----5-----5-----5-----5-----5-----5-----5-----5-----5-----5------5---|
A|---------------------------------------------------------------------------|
E|--0----0-----0-----0-----0-----0-----0-----0-----0-----0-----0------0------|


e|---0-----0-----0-----0------|
B|---5-----5-----5-----5------|
G|------4-----4-----4-----0---|
D|------5-----5-----5-----5---|
A|----------------------------|
E|---0-----0-----0-----0------|



---------------------------------------


Em..........................................Am...........................................
Holland's papa wouldn't stay in the ground, dead and buried but he walks through the town,

Em......................B..
Lord God, what is Ma to do?

Em.......................................Am......................................
Ma's so mad cos he muddied up his suit, caught in a thorn bush blowing on a flute,

Em....................B....
Oh lord, what is Ma to do?


---------------------------------------


.................Em.....................................
One, two, three, five, six, seven, eight, nine thousand,

........................................
Everybody calm down please stop shouting,

B...................
Go on, run, call 911,

.....Em........................
Calm down, calm down, calm down,

................Em.........................
One, two, four, fire, fire on the mountain,

.........................................
Everybody calm down please stop shouting,

B...................
Go on, run, call 911,

.....Em.........................
calm down, calm down, calm down,


----------------------------------------


....A..........................................................Em...
And if he did drive into town everyone would stand around and stare,

....A...............................................................Em....
The Holland's girl, catch a glimpse in the mirror as she crimps her hair,



Em..........................................Am...........................................
Holland's papa wouldn't stay in the ground, dead and buried but he walks through the town,

Em......................B..
Lord God, what is Ma to do?

Em.........................................Am.........................................
Mama's so mad cos she can't scare him off, even though she's wrapped in a table cloth,

Em.....................B..
Oh Lord, what is Ma to do?


-----------------------------------------


.................Em.....................................
One, two, three, five, six, seven, eight, nine thousand,

........................................
Everybody calm down please stop shouting,

B...................
Go on, run, call 911,

.....Em........................
Calm down, calm down, calm down,

................Em.........................
One, two, four, fire, fire on the mountain,

.........................................
Everybody calm down please stop shouting,

B...................
Go on, run, call 911,

.....Em.........................
calm down, calm down, calm down,


----------------------------------------------


................Em.........................
One, two, four, fire, fire on the mountain,

.........................................
Everybody calm down please stop shouting,

B...................
Go on, run, call 911,

.....Em.........................
calm down, calm down, calm down,

X2

END
Tap to rate this tab
 
# A B C D E F G H I J K L M N O P Q R S T U V W X Y Z