Song name
# A B C D E F G H I J K L M N O P Q R S T U V W X Y Z

The Felice Brothers - Cherry Licorice tab

Tabbed by liamtown

This is a rough tab for Ian Felice's solo performance of Cherry Licorice.

link: http://www.youtube.com/watch?v=9ZYKVssEqY8

All verses in that version follows the same rough pattern shown below (there are lots of 
flourishes and riffs in addition to what's here...).

That version is in the key of B (his guitar is tuned town half a step).


"All I wanna eat is cherry licorice"

C

e|-0--0--0---------------0--------|
B|--1--1--1--1------3-3-----1-----|
G|--------------------------------|
D|----2-----2----------2------2---|
A|-3-----3----------3-----3-------|
E|--------------------------------|


 "I don't care if it sounds ridiculous"

F

e|-1-0--------------1--0------------|
B|------1------------------1--------|
G|--------2------------------2------|
D|----3-----3------------3------3---|
A|----------------------------------|
E|-1-----1------------1-----1-------|


 "Even the birds and bees"

F         A#        G

e|-1-0------------------------------|
B|--------------6---0---------1p0---|
G|--------7---------0-------0-------|
D|----3----------8--------0-------0-|
A|----------------------------------|
E|-1--------6--------3--------3-----|


   "Eat how they damn well please"

 A#             F          C
e|----------------------------------|
B|----6----------1----1----1--------|
G|----7----------2------------------|
D|------8---------------3---------2-|
A|----------------------------3-----|
E|--6--------------1----------------|
Tap to rate this tab
# A B C D E F G H I J K L M N O P Q R S T U V W X Y Z