Song name
# A B C D E F G H I J K L M N O P Q R S T U V W X Y Z

The Fiery Furnaces - Tropical Ice-land tab

Song :Tropical Ice-Land
Artist : The Fiery Furnaces
Album : Gallowbird's Bark
Genre : Alternative
Tabbed by : Kris Hutson
IMissMrSmith@aol.com

Intro/Verse
|----0-0-0-----0--0--0--------|
|----5-5-5-/--10-10-10--------|
|----6-6-6-/--11-11-11--------|
|----7-7-7-/--12-12-12--------|
|-----------------------------|
|-----------------------------|

Chorus
|-----------------------------|
|-----------------------------|
|-----------------------------|
|-----------------------------|
|------4-4-7-7-4-4------------|
|--5-5------------------------|

|-----------------------------|
|-----------------------------|
|-----------------------------|
|-----------------------------|
|------6-6-9-9-6-6------------|
|--7-7------------------------|

That's about it my email is at the top if u have questions. I can't gurantee its accuracy.
Tap to rate this tab
# A B C D E F G H I J K L M N O P Q R S T U V W X Y Z