Song name
# A B C D E F G H I J K L M N O P Q R S T U V W X Y Z

The Figgs - Everything You Had tab

-----------------------------------------------------------------------
                        EVERYTHING YOU HAD – Pete Donnelly
-----------------------------------------------------------------------
From: The Figgs double-CD PALAIS, SodaPop Records, 2004
Tabbed by:TCurley5
E-mail:tcurley5@charter.net

Tuning: Std
Main Riff:  (Intro and Verses)
        E Maj    E11       Alternate E and partial D (Solo and End)
e|--------x--------x----|-------4--------------x----------------------|
B|--------9--------7----|-------5--------------3----------------------|
G|--------9--------7----|-------4--------------2----------------------|
D|--------9--------7----|-------2--------------0----------------------|
A|--------7-------(7)---|-------2--------------x----------------------|
E|--------x--------x----|-------0--------------x----------------------|

(To keep the timing straight and make it easier to look at,
E / / indicates the start of the riff, to be followed by E11 chord.)

INTRO:  E / E11 / / /   E / E11 / / /  (Play this set 6 times)

VERSE 1
E / /           E / /   E / /                E / /
Rai-ai-n in the summer, makes the weeds grow stronger.
E / /           E / /         D           A    G-(E)
Du ust  in  the corner, could break one s back.
E / /          E / /    E / /          E / /
The win –nd it is kickin, all my windows rattle.
E / /             E / /            D                        A      G
Cha –a-ange it is coming, Bruce is returned from Blue Tooth lag.

CHORUS:
           C#m     E                F#                    G#7
So, if you hold me close,  it won t feel so bad, it won t feel so bad.
            C#m      E             F#            G#7      A         G#7
And I would make the most, of Everything You Had, of Everything You Had

VERSE 2
E / /
Skin-in-n has been peeling, burnt from all the damage,
From too-o-o much exposure, to other peo-ple s pain.
So much has fallen around us,  I m trying to stay numb.
But the day-ay keeps returning, it s not to be outdone.

REPEAT CHORUS:

MIDDLE 8:Guitar syncopated as bass note, Chord, Chord, bassnote, chord.

c#       C#7   /  c#   C#7  g#     G#7   /        F#           G
Still there s a glow on the wick from a candle, I just blew ow-out.
c#      C#7   / c#   C#7   g      G#7    /            F#            G
Now that it s dark and I m caught in a bramble, can t find my way o-out

LEAD BREAK:
e|--------------------------------------------------------------------|
B|--7-/-(9)-\-7-p5-5-h7-/-(9)---5-s->-12-/(15)-\12—9-p7-s-<-5-h7-/(9)-|
G|--------------------------------------------------------------------|
D|--------------------------------------------------------------------|
A|--------------------------------------------------------------------|
E|--------------------------------------------------------------------|
Play solo tab twice.  Then play main riff chords as alternate E chords.

Alt E / partial D / / /   Alt E / part D / / /  (Play this set 6 times)

VERSE 3:

E / /
Cats, they all fightin, they dont even bother.
The heat, it keeps risin, they just sit and stare.

LAST CHORUS:

So, if you hold me close, it wont feel so bad, it wont feel so bad...

And I would make the most, of Everything You Had, of Everything You Had

Of Everything You Had,  of Everything You Had..

ENDING:
e|--4--4—(4)----X—(X)—X--X---4--4-(4)---X-(X)—X--X----|
B|--5--5—(5)----3-(3)-3--3---5—-5-(5)---3—(3)-3--3----|
G|--4--4—(4)----2—(2)-2--2---4--4-(4)---2-(2)-2--2----|
D|--2--2—(2)----0—(0)-0--0---2--2-(2)---0-(0)-0--0----|
A|--2--2—(2)----X—(X)-X--X---2--2-(2)---X-(X)-X--X----|
E|--0--0—(0)----X—(X)-X--X---0--0-(0)---X-(X)-X--X----|

Oh–h–h-h-h (ow-w) Oh-h-h-h-Oh-oh.

Note about Alternate E chord.  This could actually be just two guitars.
One playing barred E on 7th fret and the other guitar playing open or first position E.
In either case, in places where Alternate E is listed, the chord is loud, full and 
powerful.  Definitely different than the Intro and Verses.

The Figgs are the greatest band you never heard of.
PALAIS is a super CD set.
Tap to rate this tab
# A B C D E F G H I J K L M N O P Q R S T U V W X Y Z