Song name
# A B C D E F G H I J K L M N O P Q R S T U V W X Y Z

The Figgs - Look At Her Shes Walking Away tab

-----------------------------------------------------------------------
        LOOK AT HER (Shes Walking Away)     Mike Gent / The Figgs
-----------------------------------------------------------------------
From The Figgs CD, ((PALAIS)) 2004  Sodapop Records.
Tabbed by:TCurley5
Email:tcurley5@charter.net

This is pretty much a keyboard song.  Guitar kicks in on the chorus.
It is pretty advanced as recorded.
This is a very nice composition; somewhat Beatle-ish. Especially the throbbing 
beat during the CHORUS.  Its a cool and humorous song.

INTR0: 
F / / / / / / / 
VERSE1:
C                       Am           Fmaj7
The first time you said, I adore you; 
C                      Am          Ab Ab7
Didnt know for a fact, she would ignore you.
C          Am              Fmaj7  
Had to ask, and wait for attention;
      C             Am           Ab Ab7
Didnt write a review, not even a mention.

F(guitar) F  F F s/G  G   G   G+ 
She s on her own.  No one can own her

CHORUS:
F    F  F   F     F   F   F     G    G  G   G     G       G    
Look At Her She s Walking Away, Look At Her She s Walking Away,
F    F  F    F     F      F     F    G     G+ (G augmented)
Look at her, she s walking away from you.

VERSE 2:
C                 Am         Fmaj7       etc.
Men from her past, tell you, Stay Clear.
Swaying her ass, whisperin in your ear.
Talkin to ones, who tried to grab at
Something thats there, and you dont have.
F     F  F   F      G   G   G+
Youre on your knees, beggin ple-eas-se..

REPEAT CHORUS twice:
INTERLUDE:  Timing change speeds up into Ragtime flavor.  Mostly piano
(Guitar translation)
E|---------------------------------------------------------------------|
B|-4-5-4-5-4-5-4-------4-5-4-5-4-5-4-------4-5-4-5-4-5-4--------3-4-3-4|
G|----------------5-2-----------------5-2-----------------5-2----------|
D|---------------------------------------------------------------------|
A|---------------------------------------------------------------------|
E|---------------------------------------------------------------------|
                                                     (Then 4x on the beat)
(3-4-3-4  etc,  repeats 6 times.)                         G G G G  G+
E|------------------------------------------------------|-x-x-x-x--3--|
B|-3-4-3-------3-4-3-4-3-4-3------3-4-3-4-3-4-3---------|-3-3-3-3--4--|
G|--------5-2----------------5-2-----------------5-2----|-4-4-4-4--4--|
D|------------------------------------------------------|-5-5-5-5--5--|
A|------------------------------------------------------|-5-5-5-5--x--|
E|------------------------------------------------------|-3-3-3-3--x--|

Shes walkin a - wa-ay-ay-ay-ay- y- y

Shes walkin a - wa-ay-ay-ay-ay- y- y

ENDING: Timing Slows down. 
Starts with solo piano -single notes.
E|------------------------------------------------------|
B|------------------------------------------------------|
G|--7--5--4--2----7--5--4------7--5--4--2----7--5--4----|
D|-7-------------7------------7-------------7-----------|
A|------------------------------------------------------|
E|------------------------------------------------------|
[spoken]                    Watch her walk

More than (1) piano part. CHORUS chording. Repeats until END.
   (F)  F  F  F    F  F  F  F (G)  G  G  G    G  G  G  (G+)
E|-----------------------------------------------------------|
B|-----------------------------------------------------------|
G|--7--5--4--2----7--5--4------7--5--4--2----7--5--4--(2)----|
D|-7-------------7------------7-------------7------------(5)-|
A|-----------------------------------------------------------|
E|-----------------------------------------------------------|

CHORUS:
F                               G
Look At Her Shes Walking Away, Look At Her Shes Walking Away,
F                                    G
Look at her shes walking away from you/(Look. . .)

Look at her shes walking away, Look At Her Shes Walking Away from you

Look at her shes walking away, Look At Her Shes Walking Away from you

Look At Her Shes Walking Away, Look At Her Shes Walking Away,

(VOCALS  BEGIN IN ROUNDS):
F                                
Look At Her Shes Walking Away, 
G                                              (F) 
Look At Her Shes Walking Away, (Shes walkin a - wa-ay-ay-ay-ay- y- y)
F
Look At Her Shes Walking Away, 
G                                              (F) 
Look At Her Shes Walking Away, (Shes walkin a - wa-ay-ay-ay-ay- y- y)

REPEAT AND FADE:
Tap to rate this tab
# A B C D E F G H I J K L M N O P Q R S T U V W X Y Z