Song name
# A B C D E F G H I J K L M N O P Q R S T U V W X Y Z

The Films - Something Familiar chords

Highlighted       Show chord diagrams
Artist: The Films
Song: somethng familiar
Album: Oh, Scorpio


picking pattern for the verse:
  
   F                         Dm 
e|-------1-----------1-----|-------1-----------1-----|
B|-----1---1-------1---1---|-----3---3-------3---3---|
G|---2-------2---2-------2-|---2-------2---2-------2-|
D|-------------------------|-0-----------0-----------|
A|-------------------------|-------------------------|
E|-1-----------1-----------|-------------------------|


  Am                        C
|-------0-----------0-----|-------0-----------0-----|
|-----1---1-------1---1---|-----1---1-------1---1---|
|---2-------2---2-------2-|---0-------0---0-------0-|
|-------------------------|-------------------------|
|-0-----------0-----------|-3-----------3-----------|
|-------------------------|-------------------------|

verse:

F                   Dm
Spent the day round old friens on a 

Am                  C
weekend, drinks and sun

F                 Dm
Excess, different sexes, talking

Am             C
ex's, harmless fun



chorus:

Bb         C                F               Dm
Painfully aware of all the thickness in the air

     Bb                  C                F       F7
it's hard to change with everything thats new

      Bb          C                   F                  Dm
we've never been alone, but if you'd like I'll drive you home

      Bb            C                 F  
take care of me and I'll take care of you



verse:

F               Dm
Told you bout a secret

    Am                 C
I believed you'd never know

F              Dm
steady hot and ready lick your 
 
Am              C
lips K, here we go



Chorus:

Bb            C               F                 Dm
Ready get set start come over here and break my heart

   Bb               C                F      F7
So I can feel something I've felt before

       Bb             C                   F             Dm
You've tasted all the rest but what's familiar's always best

      Bb                   C                F     F7
Something you've lost but have been looking for

Bb            C               F                 Dm
Ready get set start come over here and break my heart

  Bb                 C            F     F7
I don't think that I need anything more

Bb            C                  F              Dm
Hanging just above like some old picture that I love

     Bb              C                Bb 
Something I lost but have been looking for

C                Bb
have been looking for

C                 F
have been looking for
Tap to rate this tab
 
# A B C D E F G H I J K L M N O P Q R S T U V W X Y Z