Song name
# A B C D E F G H I J K L M N O P Q R S T U V W X Y Z

The Fireman - Two Magpies tab

-------------------------------------------------------------------------------
			     TWO MAGPIES - The Fireman
-------------------------------------------------------------------------------
Tabbed by: Evan 
Email: evanh08@hotmail.com

Tuning: He tunes down a step, but this is for standard


                 x2           "a girl and a boy..."   
e|-5/3------------|----------------------------------------------------------|
B|-------3-----0--|---1-1---1---1---1-------0---0---0---0--------------------|
G|---------0-0-0--|-------0---0---0---0-------0---0---0---0-3----3----3-----1|
D|-3/2------------|-----------------------------------------0----0-----------|
A|-------2---1-2--|---3---------3-------3/2---------2-------1--1---1--1--1--3|
E|----------------|----------------------------------------------------------|

e|---------------------------------------------------------------------------|
B|----0-0---0---0---1---1---1---1---0---0---0--------------------------------|
G|----0---0---0-------0---0---0-------0---0---0-3---3---2---2---/2----/2--/2-|
D|------------------------------------------------0---0---0---0--0-----0---0-|
A|-1/2------------3---------------2-------------1-------0--------------------|
E|--------------------------------------------------------------/2----/2--/2-|

e|----|----------------------------------------------------------------------|
B|-0--|----------------------------------------------------------------------|
G|-0--|----------------------------------------------------------------------|
D|----|----------------------------------------------------------------------|
A|----|----------------------------------------------------------------------|
E|----|----------------------------------------------------------------------|


| /  slide up
| \  slide down
| h  hammer-on
| p  pull-off
| ~  vibrato
| +  harmonic
| x  Mute note
===============================================================================
                                                   
Tap to rate this tab
# A B C D E F G H I J K L M N O P Q R S T U V W X Y Z