Song name
# A B C D E F G H I J K L M N O P Q R S T U V W X Y Z

The Five Oclock Heroes - Anybody Home tab

Help us improve GuitareTab! Take a short survey!
Five o'Clock Heroes
Anybody Home
Bend to the Breaks




It's all in Barré chords

Intro: Bm


Bm	A	Em	Em(2X)

Bm	A	Em	Em
I wake up in the dark, nobody sees me there 

Bm	A	Em	Em
I can see my heart lying on the pillow there 

Bm	A	Em	Em
Once I knew this girl, it's how I lost my innocence 

Bm	A	Em	Em
All my fruitless words cannot bring that girl back again 

Em 
Not this time, now or never now 
 


(I don't think this is completly right but it fits in tough..)
 
   G		  D			
e|----3-------3-------5-------5--------------|
b|--3---3---3---3---7---7---7---7------------|
g|4-------4-------7-------7------------------|   I'll call this riff 1 :)
d|-------------------------------------------|
a|-------------------------------------------|
E|-------------------------------------------|

But when the lights go down on you 

  A
Don't be scared 

Riff 1
Because it doesn't really matter at all 

  A
When you're dead 



Bm	A	Em	Em
Now is therrre anybody home at all, at all? 

Bm	A	Em	Em
Is therrre anybody home at all, at all? 

Bm	A	Em	Em
Ah-ooh-ah-ooh-ow, ah-ooh-ah-ow-ow 

Bm	A	Em	Em

Instrumental
 
Bm	A	Em	Em
My eyes they look around, searching for some stimulant 

Bm	A	Em	Em
And what it is i've found, stops my mind from making sense 

Bm	A	Em	Em
The turn I took was wrong, and now I can't go back again 

Bm	A	Em	Em
I'm where you put me now, so you should watch your back my friend 

Em
Now or ne'er, now or never now 
 


Riff 1
But when the lights go down on you 

A
Don't be scared 

Riff1
Because it doesn't really matter at all 

A
You're dead 




Now you'll get riff 1 and another riff

   G		  D		  A	
e|----3-------3-------5-------5-------5-------5------------------|
b|--3---3---3---3---7---7---7---7---5---5---5---5----------------|
g|4-------4-------7-------7-------6-------6-------6-Play this 2X-|
d|---------------------------------------------------------------|
a|---------------------------------------------------------------|
E|---------------------------------------------------------------|
   And I'll call this riff2 :P
 
So this is played untill the end by guitar 2 and guitar 1 plays the same chords. 
The sentence "When the lights go down"  will come in 4 times while you play that part




 
Now when the lights go down 
 
When the lights go down  x12 
When the lights go down on you. (End on A)


That's it:)

Related for Anybody Home tab