Song name
# A B C D E F G H I J K L M N O P Q R S T U V W X Y Z

The Flaming Tsunamis - If You Really Love Me tab

Song: If You Really Love Me
Artist: The Flaming Tsunamis
Tabbed by Greg (Me_Llamo_Juan)

Rest 6 measures then:
Intro
e|-3------|--3--2--|-3----|-3--3---------------|
B|-5------|--3--3--|-5----|-3--1---------------|
G|-4------|--------|-4----|----4---------------|
D|-2------|--------|-2----|----2---------------|
A|--------|--------|------|--------------------|
E|--------|--------|------|--------------------|


Riff A
e|------------|----------------|------------|----------------|
B|------------|----------------|------------|----------------|
G|------------|----------------|------------|----------------|
D|---2--------|----------------|---2--------|----------------|
A|------3-2-0-|----------------|------3-2-0-|----------------|
E|-0----------|-3-2--0-2-0-2-3-|-0----------|-3-2--0-2-0-2-3-|

e|------------|----------------|------------|-------|
B|------------|----------------|------------|-------|
G|------------|----------------|------------|-------|
D|---2--------|----------------|---2--------|-0--1--|
A|------3-2-0-|----------------|------3-2-0-|-0--2--|
E|-0----------|-3-2--0-2-0-2-3-|-0----------|-------|

Riff B
e|-12--15-|-14-|--12--15-|-15-|-12--15-|-14-|-12-|-11-| 
B|-12--15-|-15-|--12--13-|-13-|-12--15-|-15-|-10-|-10-|  Rhythm is hard to  
G|--------|----|---------|----|--------|----|----|----|\ tab out, easy to
D|--------|----|---------|----|--------|----|----|----|/ figure by ear. It's
A|--------|----|---------|----|--------|----|----|----|  split up by measure
E|--------|----|---------|----|--------|----|----|----|

Prechorus
e|------|--------3-|------|----------|
B|--8-3-|-5-----5--|--8-3-|-5--------|
G|--9-4-|-5--5s4---|--9-4-|-5--------|
D|------|----------|------|----------|
A|------|----------|------|----------|
E|------|----------|------|----------|

Chorus
e|-----------|-------------|-----------|-------------|
B|-----------|-------------|-----------|-------------|
G|-----------|-------------|-----------|-------------|
D|-2-2-5-2-7-|-2-7-7s8-7s8-|-2-2-5-2-7-|-2-7-7s8-7-5-|
A|-2-2-5-2-7-|-2-7-7s8-7s8-|-2-2-5-2-7-|-2-7-7s8-7-5-|
E|-0-0-3-0-5-|-0-5-5s6-5s6-|-0-0-3-0-5-|-0-5-5s6-5-3-|

e|-----------|-------------|-----------|----------------|
B|-----------|-------------|-----------|----------------|
G|-----------|-------------|-----------|----------------|
D|-2-2-5-2-7-|-2-7-7s8-7s8-|-2-2-5-2-7-|-8--9--10-11-12-|
A|-2-2-5-2-7-|-2-7-7s8-7s8-|-2-2-5-2-7-|-8--9--10-11-12-|
E|-0-0-3-0-5-|-0-5-5s6-5s6-|-0-0-3-0-5-|-6--7--8--9--10-|
                                               |___3___|  
After solo:
e|-----|---------------------------------|-----|--------------------|
B|-----|---------------------------------|-----|--------------------|
G|-9-4-|-5--[11][11][11][12][11][12][11]-|-9-4-|-5--2-2-2-2s4-4-----|
D|-----|---------------------------------|-----|--------------------|
A|-----|---------------------------------|-----|--------------------|
E|-----|---------------------------------|-----|--------------------|

e|-----|---------------------------------|----15-|-14-----|
B|-----|---------------------------------|-------|--------|
G|-9-4-|-5--[11][11][11][12][11][12][11]-|-9-----|--------|
D|-----|---------------------------------|-------|--------|
A|-----|---------------------------------|-------|--------|
E|-----|---------------------------------|-------|--------|

Final chorus:
Let chords ring
e|-----------|-------------|-----------|-------------|
B|-----------|-------------|-----------|-------------|
G|-----------|-------------|-----------|-------------|
D|-2-2-5-2-7-|-2-7-7s8-7s8-|-2-2-5-2-7-|-2-7-7s8-7-5-|
A|-2-2-5-2-7-|-2-7-7s8-7s8-|-2-2-5-2-7-|-2-7-7s8-7-5-|
E|-0-0-3-0-5-|-0-5-5s6-5s6-|-0-0-3-0-5-|-0-5-5s6-5-3-|

e|-----------|-------------|-----------|----------------|
B|-----------|-------------|-----------|----------------|
G|-----------|-------------|-----------|----------------|
D|-2-2-5-2-7-|-2-7-7s8-7s8-|-2-2-5-2-7-|-7--------------|
A|-2-2-5-2-7-|-2-7-7s8-7s8-|-2-2-5-2-7-|-7--------------|
E|-0-0-3-0-5-|-0-5-5s6-5s6-|-0-0-3-0-5-|-5--------------|

Order:
Intro
Riff A
Riff B x 2
Pre chorus
Chorus
Riff B x 2
Prechorus
Chorus
Solo (You can play the chorus over this, I'll tab it out later)
After Solo
Riff B x 2
Chorus
Final Chorus

And that's all but the solo
Tap to rate this tab
 
# A B C D E F G H I J K L M N O P Q R S T U V W X Y Z