Song name
# A B C D E F G H I J K L M N O P Q R S T U V W X Y Z

The Flaming Tsunamis - Night Out tab

-----------------------------------------------------------------
Night Out - The Flaming Tsunamis
-----------------------------------------------------------------
Tabbed by:slashedtire (Christen Ward)
Email: ward.christen@gmail.com


Pretty easy song, just listen for strumming patterns in the verse. Please rate and/
or comment, thanks! 



Tuning: Standard (EADGBe)
 Intro
e|---------------------------------------------------------------|
B|---12-10-9---12-10-9-----14-12-10----14-12-10------------------|
G|-9----------9---------11-----------11--------------------------|
D|---------------------------------------------------------------|
A|---------------------------------------------------------------|
E|---------------------------------------------------------------|

e|---------------------------------------------------------------|
B|---12-10-9---12-10-9-----14-12-10---/14-14-12-10---------------|
G|-9----------9---------11-------------------------11-9----------|
D|---------------------------------------------------------------|
A|---------------------------------------------------------------|
E|---------------------------------------------------------------|


4x
e|-------------------------------11-9----/14-14-12-11------------|
B|---12-10-9--------14-12-10---9-----12--------------12----------|
G|-9---------/11-11----------------------------------------------|
D|---------------------------------------------------------------|
A|---------------------------------------------------------------|
E|---------------------------------------------------------------|

e|------------------|
B|11h12-11h12-11h12-|
G|------------------|
D|------------------|
A|------------------|
E|------------------|

Verse

2x
e|---------------------------------------------------------------|
B|---------------------------------------------------------------|
G|-9--9-9999---------------9--9-9999-----------------------------|
D|-9--9-9999-1111-9-9-9----9--9-9999-66-7-7-7--------------------|
A|-7--7-7777-1111-9-9-9----7--7-7777-66-7-7-7--------------------|
E|-----------9-9--7-7-7--------------44-5-5-5--------------------|

2x (Hey let's get some friends together tonight...)
e|---------------------------------------------------------------|
B|---------------------------------------------------------------|
G|-9--9-9999---------------9--9-9999-----------------------------|
D|-9--9-9999-1111-9-9-9----9--9-9999-66-7-7-7--------------------|
A|-7--7-7777-1111-9-9-9----7--7-7777-66-7-7-7--------------------|
E|-----------9-9--7-7-7--------------44-5-5-5--------------------|

then
(some more friends...)
e|---------------------------------------------------------------|
B|---------------------------------------------------------------|
G|---------------------------------------------------------------|
D|999999999------------2--9--------------------------------------|
A|999999999------------2--9--------------------------------------|
E|777777777------------0--7--------------------------------------|

Chorus
(I know that your parents aren't around...)
4x
e|---------------------------------------------------------------|
B|---------------------------------------------------------------|
G|---------------------------------------------------------------|
D|-2--4--6--7-7-7------------------------------------------------|
A|-2--4--6--7-7-7------------------------------------------------|
E|-0--2--4--5-5-5------------------------------------------------|

then
(far away...)
e|---------------------------------------------------------------|
B|---------------------------------------------------------------|
G|---------------------------------------------------------------|
D|999999999------------2--9--------------------------------------|
A|999999999------------2--9--------------------------------------|
E|777777777------------0--7--------------------------------------|

Verse

2x
e|---------------------------------------------------------------|
B|---------------------------------------------------------------|
G|-9--9-9999---------------9--9-9999-----------------------------|
D|-9--9-9999-1111-9-9-9----9--9-9999-66-7-7-7--------------------|
A|-7--7-7777-1111-9-9-9----7--7-7777-66-7-7-7--------------------|
E|-----------9-9--7-7-7--------------44-5-5-5--------------------|


2x (Do you know a place where we can get some beer...)
e|---------------------------------------------------------------|
B|---------------------------------------------------------------|
G|-9--9-9999---------------9--9-9999-----------------------------|
D|-9--9-9999-1111-9-9-9----9--9-9999-66-7-7-7--------------------|
A|-7--7-7777-1111-9-9-9----7--7-7777-66-7-7-7--------------------|
E|-----------9-9--7-7-7--------------44-5-5-5--------------------|

then
(Doesn't bother me...)
e|---------------------------------------------------------------|
B|---------------------------------------------------------------|
G|--------------9-11-13-13-11-9----------------------------------|
D|999999999---------------------9--------------------------------|
A|999999999---------------------9--------------------------------|
E|777777777---------------------7--------------------------------|

Chorus

4x
e|---------------------------------------------------------------|
B|---------------------------------------------------------------|
G|---------------------------------------------------------------|
D|-2--4--6--7-7-7------------------------------------------------|
A|-2--4--6--7-7-7------------------------------------------------|
E|-0--2--4--5-5-5------------------------------------------------|

then
e|---------------------------------------------------------------|
B|---------------------------------------------------------------|
G|---------------------------------------------------------------|
D|999999999------------2--9--------------------------------------|
A|999999999------------2--9--------------------------------------|
E|777777777------------0--7--------------------------------------|

Interlude
4x
e|-------------------------------11-9----/14-14-12-11------------|
B|---12-10-9--------14-12-10---9-----12--------------12----------|
G|-9---------/11-11----------------------------------------------|
D|---------------------------------------------------------------|
A|---------------------------------------------------------------|
E|---------------------------------------------------------------|

e|------------------|
B|11h12-11h12-11h12-|
G|------------------|
D|------------------|
A|------------------|
E|------------------|


Verse
2x
e|---------------------------------------------------------------|
B|---------------------------------------------------------------|
G|-9--9-9999---------------9--9-9999-----------------------------|
D|-9--9-9999-1111-9-9-9----9--9-9999-66-7-7-7--------------------|
A|-7--7-7777-1111-9-9-9----7--7-7777-66-7-7-7--------------------|
E|-----------9-9--7-7-7--------------44-5-5-5--------------------|

2x
(Will you help me, I'm so drunk...)
e|---------------------------------------------------------------|
B|---------------------------------------------------------------|
G|-9--9-9999---------------9--9-9999-----------------------------|
D|-9--9-9999-1111-9-9-9----9--9-9999-66-7-7-7--------------------|
A|-7--7-7777-1111-9-9-9----7--7-7777-66-7-7-7--------------------|
E|-----------9-9--7-7-7--------------44-5-5-5--------------------|


then
(And don't forget to bring your bong!)
e|---------------------------------------------------------------|
B|---------------------------------------------------------------|
G|---------------------------------------------------------------|
D|999999999------------2--9--------------------------------------|
A|999999999------------2--9--------------------------------------|
E|777777777------------0--7--------------------------------------|

Chorus

4x
e|---------------------------------------------------------------|
B|---------------------------------------------------------------|
G|---------------------------------------------------------------|
D|-2--4--6--7-7-7------------------------------------------------|
A|-2--4--6--7-7-7------------------------------------------------|
E|-0--2--4--5-5-5------------------------------------------------|

then
e|---------------------------------------------------------------|
B|---------------------------------------------------------------|
G|---------------------------------------------------------------|
D|999999999------------2--7-2------------------------------------|
A|999999999------------2--7-2------------------------------------|
E|777777777------------0--5-0------------------------------------|

fin.


Lyrics

Hey let's get some friends together tonight
We'll have a party and we'll try our best to have a great time
We can take my dad's new Mercedes Benz
I bet you that'll help us get some more friends

Cuz
I know that your parents aren't around
Maybe we can invite the whole damn town
I met this great girl the other day,
I don't think that she lives too far away

Do you know a place where we can get some beer?
Yeah man, there's a shop not far from here
Don't you think they're gonna ask for ID?
No man, that doesn't bother me

Oh man would you help me, I'm so drunk
I think I'll ride around in your dad's trunk
Then we'll cruise the town all night long
And don't forget to bring your bong!


| /  slide up
| \  slide down
| h  hammer-on
| p  pull-off
| ~  vibrato
| +  harmonic
| x  Mute note

Tap to rate this tab
 
# A B C D E F G H I J K L M N O P Q R S T U V W X Y Z