Guitaretab - guitar tabs
Song name
# A B C D E F G H I J K L M N O P Q R S T U V W X Y Z

The Flashbulb - Steel For Pappa tab

Title: Steel For Pappa
Artist: The Flashbulb
Tabbed by: EnviousElk

Standard tuning - EADGBE

Guitar 1  Intro (and continues through entire song)
E||------------------------------------------------------0---------|
B||-0h2-----2------0-------0------0---3-----3-----3--------3-------|
G||-----2-----2--------1-------1--------4-----4------4-------4-----|
D||-------2-----2--------2-------2--------4-----4------4-------4---|
A||-0---------------------------------2----------------------------|
E||----------------0-----------------------------------------------|

Guitar 2  Comes in after Guitar 1 plays Intro 2x
E||--------------------------------------------|
B||-12/14--------------------------12--14/12---|
G||--------13--13/11--9------------------------|
D||----------------------12/11--9--------------|
A||--------------------------------------------|
E||--------------------------------------------|
[ Tab from: http://www.guitaretab.com/t/the-flashbulb/110226.html ]
E||-----------------------------------------------------------|
B||-12/14-----------------------------------------------------|
G||--------13--13/11--9---------------------------------------|
D||----------------------12/11--99/14---12-11-9--------------|
A||----------------------------------------------9-12---------|
E||-----------------------------------------------------------|

E|-------------------------|
B|:--12/14--17/14-12-------|
G|:-------------------11---|x2
D|:------------------------|
A|:------------------------|
E|-------------------------|

E||-----------------------------------------------------------|
B||-12/14-----------------------------------------------------|
G||--------13--13/11--9---------------------------------------|
D||----------------------12/11--9-----12-11-9-----------------|
A||-------------------------------------------9-12------------|
E||-----------------------------------------------------------|

E||-----------------------------------|
B||-12/14-----------------------------|
G||--------13--13/11--9---------------|
D||----------------------12/11--9-----|
A||-----------------------------------|
E||-----------------------------------|

http://www.theflashbulb.net/
Related for Steel For Pappa tab