Song name
# A B C D E F G H I J K L M N O P Q R S T U V W X Y Z

The Flashbulb - Hello Im Benn tab

-------------------------------------------------------------------------------
                            Hello, I'm Benn - The Flashbulb
-------------------------------------------------------------------------------

Tabbed by: Jordan D.

Tuning: EADGBe

Capo: 1st fret

A tab I've always wanted done. eventually i just figured it out myself. I'm confident 
this is pretty accurate.


The guitar part in this song is just these chords fingerpicked over and over.

                             D                            Dsus4
e|---------------2------------3-----------------------2----------------------|
B|-----------3-------3--------------3----------------------------------------|
G|-------2---------------2--------------2--------2---------------------------|
D|----0------------------------------------0--0------------------------------|
A|---------------------------------------------------------------------------|
E|---------------------------------------------------------------------------|

                            Am                          A m7
e|------------------0---------3-----------------------0----------------------|
B|-------------1-------1----------1------------------------------------------|
G|--------2--------------2-----------2-----------2-------------------------- |
D|----2---------------------------------0---0--------------------------------|
A|---------------------------------------------------------------------------|
E|---------------------------------------------------------------------------|

                              C                              C
e|------------------0---------3-----------------------0-----------------------|
B|---------------------1----------1-------------------------------------------|
G|-------------0---------0-----------0----------------------------------------|
D|--------2-----------------------------2------2------------------------------|
A|----3------------------------------------3----------------------------------|
E|----------------------------------------------------------------------------|
Tap to rate this tab
 
# A B C D E F G H I J K L M N O P Q R S T U V W X Y Z