Song name
# A B C D E F G H I J K L M N O P Q R S T U V W X Y Z

The Flatliners - This Respirator tab

Help us improve GuitareTab! Take a short survey!
Alright, so heres my first tab. I'm a first year, and self-taught.. But I don't think 
too shabby. So try it out. This is one of their best songs off their new album "The Great Awake".
Play along, and you'll get it.

Legend: b = bend

INTRO
e|------------|-6--4--6--4-|------------|--6--4--2--9-|------------|
B|------------|-6--4--6--4-|------------|--6--4--2--9-|------------|
G|------------|-7--6--7--6-|------------|--7--6--3-11-|------------|
D|------------|-8--6--8--6-|------------|--8--6--4-10-|------------|
A|-----4------|-8--4--8--4-|-----4------|--8--4--4-10-|-----4------|
E|-4-6--6-4-6-|-6-----6----|-4-6--6-4-6-|--6-----2--9-|-4-6--4b----|

VERSE
|-6--4--6--4-|-6--4--2--9-|------------|
|-6--4--6--4-|-6--4--2--9-|------------|
|-7--6--7--6-|-7--6--3-11-|------------|
|-8--6--8--6-|-8--6--4-10-|------------|
|-8--4--8--4-|-8--4--4-10-|-----6------|
|-6-----6----|-6-----2--9-|-4-6--6-4-6-|

CHORUS
|-6--4--6--4-|------------|
|-6--4--6--4-|------------|
|-7--6--7--6-|------------|
|-8--6--8--6-|------------|
|-8--4--8--4-|-----6------|
|-6-----6----|-4-6--6-4-6-|

VERSE
|-6--4--6--4-|-6--4--2--9-|------------|
|-6--4--6--4-|-6--4--2--9-|------------|
|-7--6--7--6-|-7--6--3-11-|------------|
|-8--6--8--6-|-8--6--4-11-|------------|
|-8--4--8--4-|-8--4--4-10-|------------|
|-6-----6----|-6-----2--9-|-6/---------|

BRIDGE
|-2--4--2--4-|-2--4--2--4-|------------|
|-2--4--2--4-|-2--4--2--4-|------------|
|-3--6--3--6-|-3--6--3--5-|------------|
|-4--6--4--6-|-4--6--4--6-|------------|
|-4--4--4--4-|-4--4--4--6-|-----6------|
|-2-----2----|-2-----2--4-|-4-6--6-4-6-|

CHORUS
|-6--4--6--4-|-6--4--2--9-|
|-6--4--6--4-|-6--4--2--9-|
|-7--6--7--6-|-7--6--3-11-|
|-8--6--8--6-|-8--6--4-10-|
|-8--4--8--4-|-8--4--4-10-|
|-6-----6----|-6-----2--9-|
Related for This Respirator tab