Song name
# A B C D E F G H I J K L M N O P Q R S T U V W X Y Z

The Flatliners - What The Hell Happened To You chords

Highlighted       Show chord diagrams
Tabbed by MattGT321

This is the hidden track after Picking at my brain on the Destroy to Create Album. I 
have the 2 separate parts that are playing in the song.

Whole song is played in upstrokes, except a few times. Listen to the song to get the 
of how its played.

First Part starts:

       A    G   F#   G#
E:-----5----3----2----4---------|
B:-----5----3----2----4---------|
G:-----6----4----3----5---------|
D:-----7----5----4----6---------|
A:-----7----5----4----6---------|
E:-----5----3----2----4---------|


Second Part starts:

E:-----5----7----8----7----5----8----8----------|
B:-----6----8----8----8----6----9----8----------|
G:-----5----7----9----9----5----8----9----------|
D:-----X----X---10----X----X----X---10----------|
A:-----X----X----X----X----X----X----X----------|
E:-----X----X----X----X----X----X----X----------|

Not very difficult, and im sure that its mostly right, but if you can hear any 
please correct me.
Tap to rate this tab
 
# A B C D E F G H I J K L M N O P Q R S T U V W X Y Z