Song name
# A B C D E F G H I J K L M N O P Q R S T U V W X Y Z

The Flatliners - Livin Like A Rat tab

----------------------------------------------------------------------------
			     LIVIN LIKE A RAT - The Flatliners
-------------------------------------------------------------------------------
Tabbed by:Austin Perez
Email:a7xaustin@gmail.com

Tuning:Standard

Flange in begining X4
e|-------------------------------------------------------------------------|
B|-------------------------------------------------------------------------|
G|-------7--9--------------------------------------------------------------|
D|-7--4--7--9--------------------------------------------------------------|
A|-7--4--5--7--------------------------------------------------------------|
E|-5--2--------------------------------------------------------------------|


Verse = same chords as intro but with no flange(you can figure out picking pattern 
for yourself)

Chorus  (again you can figure out picking pattern)
e|-------------------------------------------------------------------------|
B|-------------------------------------------------------------------------|
G|----9--7-----------------------------------------------------------------|
D|-7--9--7-----------------------------------------------------------------|
A|-7--7--5-----------------------------------------------------------------|
E|-5-----------------------------------------------------------------------|

Solo/verse (picking pattern is easy if you listen to the song)
e|----------10--12--14--12-------------------------------------------------|
B|-10--9--7--------------------10--9--14-12-14-12-14-1414141414141414------|
G|-------------------------------------------------------------------------|
D|-------------------------------------------------------------------------|
A|-------------------------------------------------------------------------|
E|-------------------------------------------------------------------------|

e|-------------------------------------------------------------------------|
B|-12-10~-12-10~-9-10~-9-10~-12-14-12-10~-9-10~-9-10~-12-14-12-10~-9-10~---|
G|-------------------------------------------------------------------------|
D|-------------------------------------------------------------------------|
A|-------------------------------------------------------------------------|
E|-------------------------------------------------------------------------|

e|-------------------------------------------------------------------------|
B|-9-10~-12-14-12----------------------------------------------------------|
G|-------------------------------------------------------------------------|
D|-------------------------------------------------------------------------|
A|-------------------------------------------------------------------------|
E|-------------------------------------------------------------------------|

Then start solo again until the end
************************************

| /   slide up
| \   slide down
| h   hammer-on
| p   pull-off
| ~   vibrato
| +   harmonic
| x   Mute note
| b   Bend
| pb  Pre-bend
| br  Bend release
| pbr Pre-bend release
| brb Bend release bend

************************************
Tap to rate this tab
# A B C D E F G H I J K L M N O P Q R S T U V W X Y Z