The Flatliners - Theres A Problem tab

Artist: The Flatliners
Song: There's A Problem

Awesome song, the way Punk/Ska should be done. Some of the fastest stuff I've heard since AAA.

Intro

e| |-----------------------------------------------|
B| |-----------------------------------------------|
G| |------7---9------------------------------------|
D| |--2---7---9---9---7---5------------------------|
A| |--2---5---7---9---7---5------------------------|
E| |--0-----------7---5---3------------------------|


Verse (Ska Rhythm)

e| |--0----7----5----------------------------------|
B| |--0----7----5----------------------------------|
G| |--1----8----6----------------------------------|
D| |--2----9----7----------------------------------|
A| |--2--------------------------------------------|
E| |-----------------------------------------------|


Chorus

e| |-----------------------------------------------|
B| |-----------------------------------------------|
G| |------4----------------------------------------|
D| |--2---4---5----8----7--------------------------|
A| |--2---2---5----8----7--------------------------|
E| |--0-------3----6----5--------------------------|


Breakdown (Like the intro but slow it down son!)

e| |-----------------------------------------------|
B| |-----------------------------------------------|
G| |------7---9------------------------------------|
D| |--2-----------9---7---5------------------------|
A| |--2---5---7---9---7---5------------------------|
E| |--0-----------7---5---3------------------------|
Tap to rate this tab
 
# A B C D E F G H I J K L M N O P Q R S T U V W X Y Z