The Flatliners - Theres A Problem tab

Artist: The Flatliners
Song: There's A Problem


Intro

e| |----------------------------------|
B| |----------------------------------|
G| |------8---10----------------------|
D| |--3---8---10---10---8---6---------|
A| |--3---6---8----10---8---6---------|
E| |--1------------8----6---4---------|


Verse (Ska Rhythm)

e| |--1----8----6---------------------|
B| |--1----8----6---------------------|
G| |--2----9----7---------------------|
D| |--3----10---8---------------------|
A| |----------------------------------|
E| |----------------------------------|

Chorus

e| |----------------------------------|
B| |----------------------------------|
G| |------5---------------------------|
D| |--3---5---6---9---8---------------|
A| |--3---3---6---9---8---------------|
E| |--1-------4---7---6---------------|

Breakdown

e| |----------------------------------|
B| |----------------------------------|
G| |------8---10----------------------|
D| |--3------------10---8---6---------|
A| |--3---6---8----10---8---6---------|
E| |--1------------8----6---4---------|
Tap to rate this tab
 
# A B C D E F G H I J K L M N O P Q R S T U V W X Y Z