Song name
# A B C D E F G H I J K L M N O P Q R S T U V W X Y Z

The Flatliners - What The Hell Happened To You tab

The other tab for this was pretty wack.

Majority is up stroke ska strumming  
start with -> down, up, up, up  then -> up, down, up, up, up
 
Verse
E:-----5----x----x----x---------|
B:-----5----8----7----9---------|
G:-----6----8----7----9---------|
D:-----7----7----x----x---------|
A:-----7----6----5----7---------|
E:-----5----x----x----x---------|

Chorus

E:-----x----x----5----4----x----x------|
B:-----7----9----5----4----7----10-----|
G:-----7----9----6----5----7----10-----|
D:-----6----x----7----6----x----x------|
A:-----5----7----7----6----5----8------|
E:-----x----x----5----4----x----x------|


ps. My first tab.


Love, 
Madhazard (Dustin J T)
Tap to rate this tab
 
# A B C D E F G H I J K L M N O P Q R S T U V W X Y Z