Song name
# A B C D E F G H I J K L M N O P Q R S T U V W X Y Z

The Flatliners - Liver Alone tab

Artist: The Flatliners
Song: Liver Alone



e|---------------------------------------------------------------------------|
B|---------------------------------------------------------------------------|
G|-6-----------6---------------6-----------6------6---3---6---3--------------|
D|-6-----------6-----------4---6---4---6---6------8---4---8---4---6----------|
A|-4----/12----4----/12----4---4---4---6---4------8---4---8---4---6----------|
E|-------------------------2-------2---4----------6---2---6---2---4----------|
										       

  (Just stop and smell)
e|---------------------------------------------------------------------------|
B|-6----9----6----9----------------------------------------------------------|
G|-6----10---6----10-----------------6--------------6------------------------|
D|-6----10---6----10----8----3---4---6----6-----4---6---6--------------------|
A|-4----8----4----8-----8----3---4---4----6-----4---4---6--------------------|
E|----------------------6----1---2--------4-----2-------4--------------------|



e|---------------------------------------------------------------------------|
B|-6----9----6----9----------------------------------------------------------|
G|-6----10---6----10----------6----------------------------------------------|
D|-6----10---6----10-----4----6----6-----------------------------------------|
A|-4----8----4----8------4----4----6-----------------------------------------|
E|-----------------------2---------4-----------------------------------------|


e|---------------------------------------------------------------------------|
B|---------------------------------------------------------------------------|
G|---------------------------------------------------------------------------|
D|-------------6-6----------------6-6----6--8--4-----------------------------|
A|-444444444444-4-----000000000000-0-----6--8--4-----------------------------|
E|---------------------------------------4--6--2-----------------------------|
      (muted)           (muted)

e|---------------------------------------------------------------------------|
B|---------------------------------------------------------------------------|
G|---------------------------------------------------------------------------|
D|------------------6-8-6------------------------6-8b---6--8--4--------------|
A|-444444444444-6-8-------8-6---000000000000-6-8--------6--8--4--------------|
E|------------------------------------------------------4--6--2--------------|
     (muted)                      (muted)


  (Poison diluted by the sea)
e|---------------------------------------------------------------------------|
B|---------------------------------------------------------------------------|
G|-6---6---8---10--11--10----------------------------------------------------|
D|---------------------------------------------------------------------------|
A|-4---4---6---8---9---8-----------------------------------------------------|
E|---------------------------------------------------------------------------|


e|---------------------------------------------------------------------------|
B|---------------------------------------------------------------------------|
G|-----6-----------6-----------6---------------------------------------------|
D|-4---6---6---4---6---8---4---6---6---8----4----7---------------------------|
A|-4---4---6---4---4---8---4---4---6---8----4----7---------------------------|
E|-2-------4---2-------6---2-------4---6----2---/5---------------------------|
Tap to rate this tab
# A B C D E F G H I J K L M N O P Q R S T U V W X Y Z