Guitaretab - guitar tabs
Song name
# A B C D E F G H I J K L M N O P Q R S T U V W X Y Z

The Flatliners - Gullible tab

tabbed by andrew

INTRO

|-----------------------------------------------------------------------------------------------|
|-----------------------------------------------------------------------------------------------|
|-----------------------------------------------------------------------------------------------|
|---4-6-7-6-4---------------------------------------11-9-8--------------------4-6-7-6-4---------|
|-6-------------------4-6-7-6----6-7-9-7-6----9------------11-9-8h9----6------------------------|
|-----------------6-6-----------7---------------------------------------------------------------|

|--------------------------------------------------|
|--------------------------------------------------|
|--------------------------------------------------|
|--------------------------------------------------|
|------4-6-7-6----6-7-9-7-6--------0-2-3-2---------|
|-6-6-----------7----------------2-2---------------| x2 [on the last time just hold out 
F# (second fret on the 6th string)]

Second Part of Intro

  Eb minor       Bb major      B major        Bb major
[ Tab from: http://www.guitaretab.com/t/the-flatliners/80429.html ]
|-6-6-6-6-6~ --6-6-6-6-6----7-7-7-7-7~ --6-6-6-6-6------|
|-7-7-7-7-7~ --6-6-6-6-6----7-7-7-7-7~ --6-6-6-6-6------|
|-8-8-8-8-8~ --7-7-7-7-7----8-8-8-8-8~ --7-7-7-7-7------|
|-8-8-8-8-8~ ---------------9-9-9-9-9~ -----------------|
|-6-6-6-6-6~ ---------------9-9-9-9-9~ -----------------|
|-x-x-x-x-x~ ---------------7-7-7-7-7~ -----------------|  x2Öon the last time hold out 
fret on the B string (thatís an F#) instead of the Bb major chord.

VERSE
Use upstrokes
__________________________________________
Eb minor             B major                   Bb Major
6			7			6
7			7			6
8			8			7
8			9			8
6			9			8
x  (about 8 times)      7 (about 4 times)       9 (about 4 times)
CHORUS
|---------------------------------------------------------------------|
|---------------------------------------------------------------------|
|-4-4-4-4-----------------------6-4---------4-------------------------|
|-4-4-4-4-----2-2-2-2-----4---------7-4-6-7----7----------------------|
|-2-2-2-2-----2-2-2-2-----4-------------------------------------------|
|-------------0-0-0-0-----2-~ ----------------------------------------|

|------------------------------------------2-2-2-2-2---2-2-2-2-2-|
|------------------------------------------2-2-2-2-2---2-2-2-2-2-|
|-4-4-4-4----------------------------------3-3-3-3-3---3-3-3-3-3-|
|-4-4-4-4-----2-2-2-2-----4--------------------------------------|
|-2-2-2-2-----2-2-2-2-----4--------------------------------------|
|-------------0-0-0-0-----2--------------------------------------|

on the last time of the chorus just hold out the F# and donít play the Bb major chord


ORDER

Intro-x2
Second Intro-x2
Verse-x6
Second Intro-x1
Verse-x4
Chorus-x2
Intro-x2
Verse-x4
Chorus-x2
Intro-x2
Second intro-x1
Intro-x2

End on Eb minor chord
Related for Gullible tab