Song name
# A B C D E F G H I J K L M N O P Q R S T U V W X Y Z

The Flesh Eaters - Pray Till You Sweat tab

-------------------------------------------------------------------------------
                             PRAY TILL YOU SWEAT - The Flesh Eaters
-------------------------------------------------------------------------------
Tabbed by: Tyler
E-mail: hill.tyler63@yahoo.com

Tuning: Standard

Main Riff
e|---------------------------------------------------------------------------|
B|-4--5--4--4----------------------------------------------------------------|
G|-5--6--5--5----------------------------------------------------------------|
D|-6--7--6--6----------------------------------------------------------------|
A|-6--7--6--6----------------------------------------------------------------|
E|-4--5--4--4----------------------------------------------------------------|

"You gotta stop robbing the graves..." (I can't find the lyrics for this song
anywhere. I apologize if these aren't the actual words.)
e|---------------------------------------------------------------------------|
B|---------------------------------------------------------------------------|
G|------2----4-----------------2----4----------------------------------------|
D|-4----2----4-----------4-----2----4--4-------------------------------------|
A|-4----0----2-----------4-----0----2--4-------------------------------------|
E|-2-------------12/-----2-------------2-------------------------------------|

(note: the slide is one of those slides used in surf music a lot where you
pick really fast during it.)

"Cock the gun..."
e|----------------------0----------------------------------------------------|
B|------7------5--------0----------------------------------------------------|
G|------8------6--------1----------------------------------------------------|
D|-9----9-7----7-4------2----------------------------------------------------|
A|-9------7------4------2----------------------------------------------------|
E|-7------5------2------0----------------------------------------------------|

"God let me live..."
e|---------------------------------------------------------------------------|
B|-----7---------------------------------------------------------------------|
G|-8---7---6---8-------------------------------------------------------------|
D|-9---7---7---9-------------------------------------------------------------|
A|-9---5---7---9-------------------------------------------------------------|
E|-7-------5---7-------------------------------------------------------------|

During the part at the end of the song (the "something something staying by
you" part) the guitar is too quiet for me to figure out exactly what's being
played, but this is what I play and it sounds about right to me.

e|---------------------------------------------------------------------------|
B|---------------------------------------------------------------------------|
G|-8-----5---3-----------11-----8---6----------------------------------------|
D|-9-----6---4-----------12-----9---7----------------------------------------|
A|-9-----6---4--x2-then--12-----9---7--x2------------------------------------|
E|-7-----4---2-----------10-----7---5----------------------------------------|

************************************

| /   slide up
| \   slide down
| h   hammer-on
| p   pull-off
| ~   vibrato
| +   harmonic
| x   Mute note
| b   Bend
| pb  Pre-bend
| br  Bend release
| pbr Pre-bend release
| brb Bend release bend

************************************
http://www.flesheaters.com/
Tap to rate this tab
# A B C D E F G H I J K L M N O P Q R S T U V W X Y Z