Song name
# A B C D E F G H I J K L M N O P Q R S T U V W X Y Z

The Flesh Eaters - See You In The Boneyard tab

-------------------------------------------------------------------------------
                             SEE YOU IN THE BONEYARD - The Flesh Eaters
-------------------------------------------------------------------------------
Tabbed by: Tyler
E-mail: hill.tyler63@yahoo.com

Tuning: Standard

Intro/verses
e|----------------------------------------------------------------------------|
B|----------------------------------------------------------------------------|
G|-----------------6-6-6-6-6-6-6-6--------------------------------------------|
D|-8-8-8-8-4-4-4-4-6-6-6-6-6-6-6-6--------------------------------------------|
A|-8-8-8-8-4-4-4-4-4-4-4-4-4-4-4-4--------------------------------------------|
E|-6-6-6-6-2-2-2-2------------------------------------------------------------|

During the verses the progression above is played palm muted except for during part of 
the second verse. During the second verse after the progression is played six times 
through then it is played unmuted for the rest of the verse.

Saxophone riff (the one during the intro, verses, etc.)
e|-6-7-6---------------------------------------------------------------------|
B|---------------------------------------------------------------------------|
G|-------6-8-9-8---6-8-6-6---------------------------------------------------|
D|---------------8-----------------------------------------------------------|
A|---------------------------------------------------------------------------|
E|---------------------------------------------------------------------------|

Pre-chorus (you can get away with playing powerchords here if you're having a
hard time switching between the chords as I have them written fast enough)
e|---------------------------------------------------------------------------|
B|---------------------------------------------------------------------------|
G|-7--7--7--5--7--7--7--5--7--7--7--6--7--10-7--5----------------------------|
D|-8--8--8--6--8--8--8--6--8--8--8--6--8--11-8--6--play this twice then...---|
A|-8--8--8--6--8--8--8--6--8--8--8--6--8--11-8--6----------------------------|
E|-6--6--6--4--6--6--6--4--6--6--6--4--6--9--6--4----------------------------|

e|---------------------------------------------------------------------------|
B|-8--8--8--6--8--8--8--6--8--8--8--6--8--11-8--6----------------------------|
G|-8--8--8--6--8--8--8--6--8--8--8--6--8--11-8--6----------------------------|
D|-8--8--8--6--8--8--8--6--8--8--8--6--8--11-8--6--this once then...---------|
A|-6--6--6--4--6--6--6--4--6--6--6--4--6--9--6--4----------------------------|
E|---------------------------------------------------------------------------|

e|----------------------------------------------------------------------------|
B|----------------------------------------------------------------------------|
G|-7--7--7--5--7--7--7--5--7--7--7--6--7--10-7--5-----------------------------|
D|-8--8--8--6--8--8--8--6--8--8--8--6--8--11-8--6--this once more then...-----|
A|-8--8--8--6--8--8--8--6--8--8--8--6--8--11-8--6-----------------------------|
E|-6--6--6--4--6--6--6--4--6--6--6--4--6--9--6--4-----------------------------|

e|---------------------------------------------------------------------------|
B|-10-10-10-8--10-10-10-8--10-10-10-8--10-13--10-8---------------------------|
G|-10-10-10-8--10-10-10-8--10-10-10-8--10-13--10-8---------------------------|
D|-10-10-10-8--10-10-10-8--10-10-10-8--10-13--10-8--this once then...--------|
A|-8--8--8--6--8--8--8--6--8--8--8--6--8--11--8--6---------------------------|
E|---------------------------------------------------------------------------|

e|---------------------------------------------------------------------------|
B|---------------------------------------------------------------------------|
G|-7--7--7--5--7--7--7--5--7--7--7--6--7--10-7--5----------------------------|
D|-8--8--8--6--8--8--8--6--8--8--8--6--8--11-8--6--this one last time--------|
A|-8--8--8--6--8--8--8--6--8--8--8--6--8--11-8--6----------------------------|
E|-6--6--6--4--6--6--6--4--6--6--6--4--6--9--6--4----------------------------|

Chorus
  "See.....you....in the boneyard..
e|---------------------------------------------------------------------------|
B|-6-------11-----6--6---9---9-----------6-4---------------------------------|
G|-6-------11-----6--6---9---9-----5--5--6-4---------------------------------|
D|-6-------11-----6--6---9---9-----6--6--6-4---------------------------------|
A|-4-------9------4--4---7---7-----6--6--4-2---------------------------------|
E|---------------------------------4--4--------------------------------------|

After the B chord a bluesy riff is played which I honestly can't figure out.
If you do know how to play it please let me know.
Tap to rate this tab
# A B C D E F G H I J K L M N O P Q R S T U V W X Y Z