Song name
# A B C D E F G H I J K L M N O P Q R S T U V W X Y Z

The Flesh Eaters - Digging My Grave tab

-----------------------------------------------------------------------------
                             DIGGING MY GRAVE - The Flesh Eaters
-----------------------------------------------------------------------------
Tabbed by: Tyler
E-mail: hill.tyler63@yahoo.com

Tuning: Standard

Dave Alvin plays the guitar parts slightly differently throughout the song
(sometimes he'll strum a certain chord once and then later on twice for
example), and trying to tab out all of these slight changes would make for an
absurdly long tab so this tab is just an outline of the song. You'll have to
just listen to the song if you want to master all the little things like that.

Bass tab
e|---------------------------------------------------------------------------|
B|---------------------------------------------------------------------------|
G|---------------------------------------------------------------------------|
D|---------------------------------------------------------------------------|
A|-3----------------------6----------------------6---------------------------|
E|-----------3------------------------3---------------------3----------------|

Part starting at 0:36
e|---------------------------------------------------------------------------|
B|-5-------------------------------------------------------------------------|
G|-5---------4---------------------------------------------------------------|
D|-5---------5---------------------------------------------------------------|
A|-3---------5---------------------------------------------------------------|
E|-----------3---------------------------------------------------------------|

Part starting at 0:42
e|---------------------------------------------------------------------------|
B|-5---------------------5--------------5-5----------------------------------|
G|-5---------4-------7---5---4------7-7-5-5-4--------------------------------|
D|-5---------5-------8---5---5------8-8-5-5-5--------------------------------|
A|-3---------5-------8---3---5------8-8-3-3-5--------------------------------|
E|-----------3-------6-------3------6-6-----3--------------------------------|

Saxophone part starting at 0:42
e|---------------------------------------------------------------------------|
B|----3----------------------------------------------------------------------|
G|-5-----5-3-3------------3----5-------------3-3-5-5-------------------------|
D|--------------5------5-----------5------5----------5-----------------------|
A|---------------------------------------------------------------------------|
E|---------------------------------------------------------------------------|

Verses
e|----------------------6-------------------6--------------------------------|
B|-5--------------------8-------------------8--------------------------------|
G|-5---------4----------8---------4---------8--------4-----------------------|
D|-5---------5----------8---------5---------8--------5-----------------------|
A|-3---------5----------6---------5---------6--------5-----------------------|
E|-----------3--------------------3------------------3-----------------------|

Saxophone during verses
e|---------------------------------------------------------------------------|
B|----3----------------4-----4-----------------------------------------------|
G|-5-----5-3-3------------5------5-------------------------------------------|
D|--------------5--------------------first time through then just------------|
A|---------------------------------------------------------------------------|
E|---------------------------------------------------------------------------|

e|---------------------------------------------------------------------------|
B|---------------------4-----4-----------------------------------------------|
G|------------------------5------5-------------------------------------------|
D|-----------------------------------for the rest of the verse---------------|
A|---------------------------------------------------------------------------|
E|---------------------------------------------------------------------------|

Choruses
e|---------------------------------------------------------------------------|
B|---------------------------------------------------------------------------|
G|-4---7-7---4---2-2---4---7-7--------4---2----------------------------------|
D|-5---8-8---5---3-3---5---8-8--------5---3----------------------------------|
A|-5---8-8---5---3-3---5---8-8--then--5---3--for the rest of the chorus------|
E|-3---6-6---3---1-1---3---6-6--------3---1----------------------------------|
Tap to rate this tab
# A B C D E F G H I J K L M N O P Q R S T U V W X Y Z