Song name
# A B C D E F G H I J K L M N O P Q R S T U V W X Y Z

The Flesh Eaters - Divine Horseman tab

-----------------------------------------------------------------------------
                             DIVINE HORSEMAN - The Flesh Eaters
-----------------------------------------------------------------------------
Tabbed by: Tyler
E-mail: hill.tyler63@yahoo.com

Tuning: Standard

Guitar part (It sounds like Dave Alvin may play more than three strings some
of the time. I believe they're all major chords in case you want to play more
than just power chords also.)
e|---------------------------------------------------------------------------
B|---------------------------------------------------------------------------
G|---------------------------------------------------------------------------
D|-7-/-9-9-9---11-\-7-7-7----------------------------------------------------
A|-7-/-9-9-9---11-\-7-7-7----------------------------------------------------
E|-5-/-7-7-7---9--\-5-5-5----------------------------------------------------

Saxophone part (Many variations of this riff are played throughout the song.
I'm not going to tab all of them. This is how it is most commonly played.)
e|-19-19----21-------19-19----21---------------------------------------------
B|-------19----------------19------19-19-------------------------------------
G|---------------------------------------------------------------------------
D|---------------------------------------------------------------------------
A|---------------------------------------------------------------------------
E|---------------------------------------------------------------------------



************************************

| /   slide up
| \   slide down
| h   hammer-on
| p   pull-off
| ~   vibrato
| +   harmonic
| x   Mute note
| b   Bend
| pb  Pre-bend
| br  Bend release
| pbr Pre-bend release
| brb Bend release bend

************************************
Tap to rate this tab
 
# A B C D E F G H I J K L M N O P Q R S T U V W X Y Z