Song name
# A B C D E F G H I J K L M N O P Q R S T U V W X Y Z

The Flower Kings - The Unorthodox Dancing Lesson tab

The Flower Kings - The Unorthodox Dancing Lesson

Tabbbed by: mongo_man

Riff 1
E|----------------------------------|
B|----------------------------------|
G|----------------------------------|
D|--3---6---4---2--3---6--4--2--3---|   Play this 4 times
A|--3---6---4---2--3---6--4--2--3---|
E|--1---4---2---0--1---4--2--0--1---|


Riff2
E|----------------------------------|
B|----------------------------------|
G|-----------------7~---5-7-4--2-4-1|   Play this 4 times aswel
D|--------5-6-8-9-------------------|
A|--8-7-8---------------------------|
E|----------------------------------|


E|------------------------------------------------------------|
B|------------------------------------------------------------|
G|--3--0--3--0--3--0--3--0--3h5---3--0--3--0--3--0--3--0--3h5-|
D|------------------------------------------------------------|
A|------------------------------------------------------------|
E|------------------------------------------------------------|

E|-------------------------------------------|
B|--1---1---1---1---1h3--1---1---1---1---1h3-|
G|----3---3---3---3--------3---3---3---3-----|
D|-------------------------------------------|
A|-------------------------------------------|
E|-------------------------------------------|

E|-------------------------------------------|
B|-------------------------------------------|
G|--4---4---4---4---4h6--4---4---4---4---4h6-|
D|----6---6---6---6--------6---6---6---6-----|
A|-------------------------------------------|
E|-------------------------------------------| 

E|-------------------------------------------|
B|-------------------------------------------|
G|--7---7---7---7---7h9--7---7---7---7---7h9-|
D|----9---9---9---9--------9---9---9---9-----|
A|-------------------------------------------|
E|-------------------------------------------|

Back to Riff 1
Tap to rate this tab
 
# A B C D E F G H I J K L M N O P Q R S T U V W X Y Z