Song name
# A B C D E F G H I J K L M N O P Q R S T U V W X Y Z

The Flower Kings - World Without A Heart tab

The Flower Kings - World Without A Heart

Chords By Albergoni Claudio (albergoni_ia@hotmail.com)

Intro:

(Chords)

  Em (The intro is based on a Em chord maybe there are some variations with an Em7)

(Slide Guitar)

E|--------------------------------------|
B|--------------------------------------|
G|--\12-11---9-7-4-7-4----\-12-11--16---|
D|--------------------------------------|
A|--------------------------------------|
E|--------------------------------------|

*Verse1*
         D             Bm
When you turn away and lock all your doors
          C
When it's getting out of hand, how am I to understand
         D                        Bm
And then you may think there's no turning back
        C
Running low on self esteem

falling back into your dream

"Verse2"

There's this endless hole in the wishing well
Wish you were somebody else
but too afraid to ask for help
Would you play a part in the scheme of things
And I will depend on you, if you show me how to do

*Chorus*

G                  Am       Bm      C
We are the troopers, pick up the losers
    D           G
and turn into a better day
G                   Am     Bm       C
Pick up the sceptics, the non believers
    D           G
and turn into a brighter day

*Break* Piano+Guitar

 Em

"Verse 3"

And the winner smiles and she takes it all
And you are lonely and afraid,
but she doesn't look your way
And they know the drill, taking you apart
And the world that you have known
is a world without a heart

"Chorus"

We are the troopers, pick up the losers
and turn into a better day
Pick up the sceptics, the non believers
and turn into a brighter day

*Theme* Keyboard

E|--------------------------------------------------------|
B|--------------------------------------------------------|
G|--7-4---9-7---7---4-----4-5--7-4---9-7-5-7--4-----4-5---|
D|------5-----5------5--5----------5-----------5--5-------|
A|--------------------7-------------------------7---------|
E|--------------------------------------------------------|

E|----------12---------------------------15-14-12---------|
B|-15-12------15-13-15--12------12-13-15---------15-13-15-|(Here enters guitar)
G|-------12---------------12--12--------------------------|
D|--------------------------14----------------------------|
A|--------------------------------------------------------|
E|--------------------------------------------------------|


"Chorus"

We are the troopers, pick up the losers
and turn into a better day
Pick up the sceptics, the non believers
and turn into a brighter day


Reverse Words At the End : "Who can tell the price of learning, stepping out and turn 
key"
Tap to rate this tab
# A B C D E F G H I J K L M N O P Q R S T U V W X Y Z