Song name
# A B C D E F G H I J K L M N O P Q R S T U V W X Y Z

The Flower Kings - I Am The Sun Live tab

               The Flower Kings - I Am The Sun

Transcribed by: Albergoni Claudio (albergoni_ia@hotmail.com)

"This Is the live version also found on "Instant Delivery"

Main Theme                         Bridge

-|--------------------------|-----|------------------------|------------------|
-|--------------------------|-----|------------------------|------------------|
-|-7--6-7-6-----7-6-----7-9-|x4---|------------------------|------------------|
-|----------7-------7-------|-----|-7-5-4-------4--------9-|-7-5-4-------4----|
-|------------9-------9-----|-----|-------7-5-7---5--5-7---|-------7-5-7---5--|
-|--------------------------|-----|------------------------|------------------|


----|-----------------------|----------------------|-------------------------|
----|-----------------------|----------------------|-------------------------|
----|-----------------------|----------------------|-------------------------|
----|--7-5-4-------4-------9|-7-5-3----------------|-7-5-4-------------------|
----|--------7-5-7---5-5-7--|-------7-5-3----------|-------7--5-4------------|
-7-5|-----------------------|-------------7-5--5-5-|--------------7-5--4-0-2-|

Main theme                          (The second guitar enters after 2 times)
                                     2nd gt
---------------------------|-------|--------------------------|---------------|
---------------------------|-------|-7--5-7-5-----7-5---------|---------------|
-7--6-7-6-----7-6-----7-9--|x4-----|----------6-------6----7-9|---------------|
----------7-------7--------|-------|------------7-------7-----|---------------|
------------9-------9------|-------|--------------------------|---------------|
---------------------------|-------|--------------------------|---------------|

Keyboard theme
-|-------------------------------------------------------------9----9-10-9---|
-|------------------------10--8-6-------6-8-10-11-8-------8-11--10-----------|
-|-11--9-7---------7-9-11---------9-7-9-------------8-7-8--------------------|
-|---------11-9-11-----------------------------------------------------------|
-|---------------------------------------------------------------------------|
-|---------------------------------------------------------------------------|


-|-------------------------------------------------------------10----10-13----|
-|------------------------10--8-6-------6-8-10-11-8-------8-11----11----------|
-|-11--9-7---------7-9-11---------9-7-9-------------8-7-8---------------------|
-|---------11-9-11------------------------------------------------------------|
-|----------------------------------------------------------------------------|
-|----------------------------------------------------------------------------|


-10---|------------------------------------------------|----------------------|
----13|--15v--14-15-14v--10-12-13v--12-13-12v-----15v--|----------------------|
------|----------------------------------------12------|----------------------|
------|------------------------------------------------|----------------------|
------|------------------------------------------------|----------------------|
------|------------------------------------------------|----------------------|

Riff1

-|----------------------------------------------------------------------------|
-|----------------------------------------------------------------------------|
-|----------------7v------------------------------------7-7v------------------|
-|----------------6v------------------------------------6-6v------------------|
-|-5-5-5---5-5-5--5v--5-5-5---5-5-5------5-5-5---5-5-5--5-5v--5-5-5-----------|
-|-5-5-5---5-5-5------5-5-5---5-5-5------5-5-5---5-5-5--------5-5-5--0-3v0-5v-|


       Verse                         Chorus
------|-5---5-------3---|-----------|--------------------------------|--------|
------|-7---5---10--3---|-----------|--------------------------------|--------|
------|-7---6---10--0---|-----------|--------------------------------|--------|
------|-7---7---10--0---|-----------|-2-2-2--2-2-2---2-2-2-----------|--------|
------|-5---7---8---2---|-7-6-5--3--|-0-0-0--0-0-0---0-0-0--5-4-3----|--------|
-0-3v-|-------------3---|-----------|------------------------------3-|--------|

                        1st ending   2nd ending
-----------------------|---------|--|-----------|-------------------------------|
-----------------------|---------|--|-----------|-------------------------------|
-----------------------|---------|--|-----------|-------------------------------|
-2-2-2--2-2-2---2-2-2--|---------|--|--5-6-7-9--|-------------------------------|
-0-0-0--0-0-0---0-0-0--|-5-4-2-4-|--|--3-4-5-7--|-------------------------------|
-----------------------|---------|--|-----------|-------------------------------|

Riff 1 (with variations)
--------------------------------------------------------------------------------------|
--------------------------------------------------------------------------------------|
---------------7----------------7-7----------------7---7------------------------------|
---------------6----------------6-6----------------6-7-6------------------------------|
-5-5-5--5-5-5--5--5-5-5--5-5-5--5-5--5-5-5--5-5-5--5-6-5--5-5-5--5-5-5----------------|
-5-5-5--5-5-5-----5-5-5--5-5-5-------5-5-5--5-5-5----5----5-5-5--5-5-5--0-3v---0-5v-0-|

-3v
        Verse                         Chorus
|-5---5-------3---|-----------|--------------------------------|--------|
|-7---5---10--3---|-----------|--------------------------------|--------|
|-7---6---10--0---|-----------|--------------------------------|--------|
|-7---7---10--0---|-----------|-2-2-2--2-2-2---2-2-2-----------|--------|
|-5---7---8---2---|-3-4-5-6---|-0-0-0--0-0-0---0-0-0--5-4-3----|--------|
|-------------3---|-1-2-3-4---|------------------------------3-|--------|

                        1st ending   2nd ending
-----------------------|-----------|-----------|-------------------------------|
-----------------------|-----------|-----------|-------------------------------|
-----------------------|-----------|-----------|-------------------------------|
-2-2-2--2-2-2---2-2-2--|-----------|--5-6-7-9--|-------------------------------|
-0-0-0--0-0-0---0-0-0--|-5-4-2-4---|--3-4-5-7--|-------------------------------|
-----------------------|-----------|-----------|-------------------------------|
 Interlude
|---------------------------------------------|--------------------|
|-----------9--7-5-7---7v----5-7--10-8-7------|-----------9---7-5--|
|-6--6-8-9-----------6-----7-------------7--9-|-6--6-8-9-----------|
|---------------------------------------------|--------------------|
|---------------------------------------------|--------------------|
|---------------------------------------------|--------------------|


-----------------------10v-|--------|----------|-2----|-------------|---------|
-7---7v----5-7--10v-12-----|--------|----------|-3----|-------------|---------|
---6-----7-----------------|-Verse--|----------|-2----|-Main Theme--|---------|
---------------------------|--------|----------|-0----|-------------|---------|
---------------------------|--------|-5-5--5-5-|------|-------------|---------|
---------------------------|--------|-3-3--3-3-|------|-------------|---------|

Second Verse               Second Chorus (Flute\Key)
-|-----------------------|----------------------------------------------------|
-|--7---3--5---7---3--5--|-5--5---5-7-8--5--8-7-----7-5v---5--5---5-7-8-5--8--|
-|--7---4--6---7---4--6--|------7----------------7--------------7-------------|
-|--7---5--7---7---5--7--|----------------------------------------------------|
-|--5---5--7---9---5--7--|----------------------------------------------------|
-|-----------------------|----------------------------------------------------|


----------|-2--|------|-2-----0-----2-----0----|--|1-----0-----1-----0----|---|
-7v-5v----|-3--|------|---3-----3-----3-----3--|--|--3-----3-----3-----3--|---|
-------7v-|-2--|------|-----2-----2-----2-----2|x6|----2-----2-----2-----2|x2-|
----------|-0--|------|------------------------|--|-----------------------|---|
----------|----|------|------------------------|--|-----------------------|---|
----------|----|------|------------------------|--|-----------------------|---|


The ending will be posted as soon as possible!!!
Tap to rate this tab
# A B C D E F G H I J K L M N O P Q R S T U V W X Y Z