The Flower Kings - Solitary Shell tab

Albergoni Claudio, u did a great job on this song. I wanna add a some nice bass notes in the tab.


Intro                             x2
E -----0-------0-------0-------0--- |
B ---1---1---1---1---1---1---1---1-.|
G -0-------2-------0-------2------- |
D ---------------------------------.|
A -3------------------------------- |
E --------------------------------- |
                                                                        x2
Verse                                                   |ŻŻŻŻŻŻŻŻŻŻŻŻŻŻŻŻŻ
E -----0-------0---|----0-------0---|------0-------0---| ----0-------0--- |
B ---1---1---1---1-|--1---1---1---1-|----1---1---1---1-|.--1---1---1---1-.|
G -0-------2-------|0-------2-------|--0-------2-------| 0-------2------- |
D -----------------|----------------|------------------|.----------------.|
A -----------------|--------0-------|------------------| 3--------------- |
E -0-------1-------|3---------------|--3---------------| ---------------- |


Edited by Korvfrites
Tap to rate this tab
 
# A B C D E F G H I J K L M N O P Q R S T U V W X Y Z