Song name
# A B C D E F G H I J K L M N O P Q R S T U V W X Y Z

The Flowerpot Men - Beat City tab

Help us improve GuitareTab! Take a short survey!
This tab is pretty easy to pick up on.  If you listen to the song while you play you'll 
it up even faster, but that shouldn't be a surprise to anyone.

e[-------------------------]
B[-------------------------]
G[-------------------------]
D[---7------5-----5------7-] x3
A[--7-7----7-7---7-7----7--]
E[-5-----77-----8-----55---]

e[-------------------------]
B[-------------------------]
G[-------------------------]
D[---7------5-----5------7-]
A[--7-7----7-7---7-7--559--]
E[-5-----77-----8----------]

Chorus:
e[----------------------]
B[----------------------]
G[----------------------]
D[-777-999--------121212]
A[-777-999-101010-121212]
E[-555-777-8-8-8--101010]
Related for Beat City tab