Song name
# A B C D E F G H I J K L M N O P Q R S T U V W X Y Z

The Follow Through - So High tab

CAPO ON FIRST FRET
or tune to half step down

Chords used ...

e|0      e|0        e|0       e|9       e|0      e|0      e|0
B|2      B|3        B|0       B|11      B|0      B|7      B|5
G|2      G|2        G|1       G|10      G|9      G|7      G|7
D|2      D|2        D|2       D|10      D|9      D|7      D|7
A|0      A|0        A|2       A|9       A|7      A|0      A|0
E|0      E|0        E|0       E|9       E|0      E|0      E|0


e|0     e|0      e|0      e|0      e|0      e|0      e|0
B|5     B|5      B|0      B|0      B|0      B|2      B|0
G|6     G|7      G|4      G|0      G|2      G|2      G|7
D|0     D|0      D|4      D|4      D|2      D|2      D|7
A|0     A|0      A|2      A|4      A|2      A|0      A|5
E|0     E|0      E|0      E|2      E|0      E|0      E|0


i haven't given the strumming patter just listen for it and the chord changes

play around with the notes for the second time he plays it it sounds good
and feel free to use hammer on's/pull off's to make it sound better

INTRO

e|--------------------------------------------------- |                      \
B|----------------------------                     -- |
G|------9---0-----------6-----                     -- |
D|----7---7---7-7-9-7-9---9-7-     x2              -- |
A|--0-------------------------                     -- |
E|--------------------------------------------------- |                      |  play this twice
                                                    |
e|----------------------------                     -- |
B|----------------------------                     -- |
G|------9---6------------6----   x2 second time you-- |
D|----7---7----7-7-9-7-9---9-7      play this add  -- |
A|--5-------------------------      G|9 on the end -- |
E|--------------------------------------------------- |                      /


e|--x--
B|--x--
G|--x--   palm mute strum once
D|--x--
A|--x--
E|--x--

INSTRUMENTAL

e|---0---0---0---0---0---0---0---0---0---0---0---|
B|---2---3---2---0---0---0---7---5---5---5---0---|
G|---2---2---2---1---11--9---7---7---6---7---4---|
D|---2---2---2---2---11--9---7---7---0---0---4---|
A|---0---0---0---2---9---7---0---0---0---0---2---|
E|---0---0---0---0---9---0---0---0---0---0---0---|


palm mute ...                 \
                               |
e|---x---x---x---x---          |
B|---x---x---2---x---          |
G|---x---2---2---7---          |
D|---4---2---2---7---          |
A|---4---2---x---5---          |
E|---2---x---x-------          |
                               |      play twice :)
not muted                      |
                               |
e|---2---                      |
B|---2---                      |
G|---4---                      |
D|---4---                      |
A|---2---                      |
E|---0---                      |
                               /


i swear when i first saw you ...

e|---2---0---0--0---0---0---0---0---------------|
B|---2---0---2--3---2---7---5---7---10--9---7---|
G|---2---1---2--2---2---7---7---7---------------|
D|---4---2---2--2---2---7---7---7---------------|
A|---4---2---0--0---0---0---0---0---9---7---5---|
E|---2---0---0--0---0---0---0---0---------------|


palm mute
e|---x---|
B|---x---|
G|---x---|
D|---x---|
A|---x---|
E|---x---|

CHORUS

e|---0---0---0---0---0---0---0---0---0---0---0---|
B|---2---3---2---0---0---0---7---5---5---5---0---|
G|---2---2---2---1---11--9---7---7---6---7---4---|
D|---2---2---2---2---11--9---7---7---0---0---4---|
A|---0---0---0---2---9---7---0---0---0---0---2---|
E|---0---0---0---0---9---0---0---0---0---0---0---|


palm mute ...

e|---x---x---x---x---|
B|---x---x---2---x---|
G|---x---2---2---7---|    Play twice :)
D|---4---2---2---7---|
A|---4---2---x---5---|
E|---2---x---x-------|


so tell me you love me cos it makes me feel ...

e|---2---0---0---0---0---0---0---0---------------|
B|---2---0---2---3---2---7---5---7---10--9---7---|
G|---2---1---2---2---2---7---7---7---------------|
D|---4---2---2---2---2---7---7---7---------------|
A|---4---2---0---0---0---0---0---0---9---7---5---|
E|---2---0---0---0---0---0---0---0---------------|


CHORUS

e|---0---0---0---0---0---0---0---0---0---0---0---|
B|---2---3---2---0---10--0---7---5---5---5---0---|
G|---2---2---2---1---11--9---7---7---6---7---4---|
D|---2---2---2---2---11--9---7---7---0---0---4---|   play twice :)
A|---0---0---0---2---9---7---0---0---0---0---2---|
E|---0---0---0---0---9---0---0---0---0---0---0---|


tell me how long we have up here away from every thing we ....


e|-----------------------|
B|---10--9---7---5---7---|
G|-----------------------|
D|-----------------------|
A|---9---7---5---4---5---|
E|-----------------------|

i swear i will fight until were the last two standing...

e|---9---0---0---0---0---0---0---0---|
B|---10--0---2---3---2---7---5---7---|
G|---11--9---2---2---2---7---7---7---|
D|---11--9---2---2---2---7---7---7---|
A|---9---7---0---0---0---0---0---0---|
E|---9---0---0---0---0---0---0---0---|

Instrumental ...

e|---------*-----*----------*------     *
B|-----10--*--9--*----5-----*--7---     *
G|---------*-----*----------*------     * = slap   play 3 times =]
D|---------*-----*----------*------     *
A|---9-----*--7--*--4----4--*--5---     *
E|---------*-----*----------*------     *


e|--------------------|
B|---5---7---10---9---|
G|--------------------|
D|--------------------|
A|---4---5---9----7---|
E|--------------------|


CHORUS

e|---0---x---0---0---0---0---0---0---0---0---0---0---|
B|---2---x---3---2---0---0---0---7---5---5---5---0---|
G|---2---x---2---2---1---11--9---7---7---6---7---4---|
D|---2---x---2---2---2---11--9---7---7---0---0---4---|   play x2 =]
A|---0---x---0---0---2---9---7---0---0---0---0---2---|
E|---0---x---0---0---0---9---0---0---0---0---0---0---|


end with

e|---0---0---0---|
B|---0---0---7---|
G|---11--9---7---|
D|---11--9---7---|
A|---9---7---0---|
E|---9---0---0---|


that took me flipping ages hope you enjoyed it

by coral page :)
Tap to rate this tab
# A B C D E F G H I J K L M N O P Q R S T U V W X Y Z